  0
SECTION
  2
HEADER
  9
$ACADVER
  1
AC1015
  9
$ACADMAINTVER
 70
     6
  9
$DWGCODEPAGE
  3
ANSI_1250
  9
$INSBASE
 10
0.0
 20
0.0
 30
0.0
  9
$EXTMIN
 10
0.0
 20
0.0
 30
0.0
  9
$EXTMAX
 10
20000.0
 20
10000.0
 30
0.0
  9
$LIMMIN
 10
0.0
 20
0.0
  9
$LIMMAX
 10
20000.0
 20
10000.0
  9
$ORTHOMODE
 70
     0
  9
$REGENMODE
 70
     1
  9
$FILLMODE
 70
     1
  9
$QTEXTMODE
 70
     0
  9
$MIRRTEXT
 70
     1
  9
$LTSCALE
 40
1.0
  9
$ATTMODE
 70
     1
  9
$TEXTSIZE
 40
2.0
  9
$TRACEWID
 40
1.0
  9
$TEXTSTYLE
  7
Standard
  9
$CLAYER
  8
0
  9
$CELTYPE
  6
ByLayer
  9
$CECOLOR
 62
   256
  9
$CELTSCALE
 40
1.0
  9
$DISPSILH
 70
     0
  9
$DIMSCALE
 40
1.0
  9
$DIMASZ
 40
2.0
  9
$DIMEXO
 40
1.0
  9
$DIMDLI
 40
3.75
  9
$DIMRND
 40
0.0
  9
$DIMDLE
 40
0.0
  9
$DIMEXE
 40
1.0
  9
$DIMTP
 40
0.0
  9
$DIMTM
 40
0.0
  9
$DIMTXT
 40
2.0
  9
$DIMCEN
 40
2.5
  9
$DIMTSZ
 40
0.0
  9
$DIMTOL
 70
     0
  9
$DIMLIM
 70
     0
  9
$DIMTIH
 70
     1
  9
$DIMTOH
 70
     1
  9
$DIMSE1
 70
     0
  9
$DIMSE2
 70
     0
  9
$DIMTAD
 70
     1
  9
$DIMZIN
 70
     0
  9
$DIMBLK
  1

  9
$DIMASO
 70
     1
  9
$DIMSHO
 70
     1
  9
$DIMPOST
  1

  9
$DIMAPOST
  1

  9
$DIMALT
 70
     0
  9
$DIMALTD
 70
     3
  9
$DIMALTF
 40
0.0393700787
  9
$DIMLFAC
 40
1.0
  9
$DIMTOFL
 70
     1
  9
$DIMTVP
 40
0.0
  9
$DIMTIX
 70
     0
  9
$DIMSOXD
 70
     0
  9
$DIMSAH
 70
     0
  9
$DIMBLK1
  1

  9
$DIMBLK2
  1

  9
$DIMSTYLE
  2
ISO-25
  9
$DIMCLRD
 70
     0
  9
$DIMCLRE
 70
     0
  9
$DIMCLRT
 70
     0
  9
$DIMTFAC
 40
1.0
  9
$DIMGAP
 40
1.524
  9
$DIMJUST
 70
     0
  9
$DIMSD1
 70
     0
  9
$DIMSD2
 70
     0
  9
$DIMTOLJ
 70
     0
  9
$DIMTZIN
 70
     0
  9
$DIMALTZ
 70
     0
  9
$DIMALTTZ
 70
     0
  9
$DIMUPT
 70
     0
  9
$DIMDEC
 70
     2
  9
$DIMTDEC
 70
     0
  9
$DIMALTU
 70
     2
  9
$DIMALTTD
 70
     3
  9
$DIMTXSTY
  7
Standard
  9
$DIMAUNIT
 70
     0
  9
$DIMADEC
 70
     2
  9
$DIMALTRND
 40
0.0
  9
$DIMAZIN
 70
     0
  9
$DIMDSEP
 70
    44
  9
$DIMATFIT
 70
     3
  9
$DIMFRAC
 70
     0
  9
$DIMLDRBLK
  1

  9
$DIMLUNIT
 70
     2
  9
$DIMLWD
 70
    -2
  9
$DIMLWE
 70
    -2
  9
$DIMTMOVE
 70
     0
  9
$LUNITS
 70
     2
  9
$LUPREC
 70
     3
  9
$SKETCHINC
 40
1.0
  9
$FILLETRAD
 40
10.0
  9
$AUNITS
 70
     0
  9
$AUPREC
 70
     2
  9
$MENU
  1
.
  9
$ELEVATION
 40
0.0
  9
$PELEVATION
 40
0.0
  9
$THICKNESS
 40
0.0
  9
$LIMCHECK
 70
     0
  9
$CHAMFERA
 40
0.0
  9
$CHAMFERB
 40
0.0
  9
$CHAMFERC
 40
0.0
  9
$CHAMFERD
 40
0.0
  9
$SKPOLY
 70
     0
  9
$TDCREATE
 40
2459100.469864641
  9
$TDUCREATE
 40
2459100.386531308
  9
$TDUPDATE
 40
2459100.469865185
  9
$TDUUPDATE
 40
2459100.386531852
  9
$TDINDWG
 40
0.0000000116
  9
$TDUSRTIMER
 40
0.0000000116
  9
$USRTIMER
 70
     1
  9
$ANGBASE
 50
0.0
  9
$ANGDIR
 70
     0
  9
$PDMODE
 70
     0
  9
$PDSIZE
 40
-1.0
  9
$PLINEWID
 40
0.0
  9
$SPLFRAME
 70
     0
  9
$SPLINETYPE
 70
     6
  9
$SPLINESEGS
 70
     8
  9
$HANDSEED
  5
2B9
  9
$SURFTAB1
 70
     6
  9
$SURFTAB2
 70
     6
  9
$SURFTYPE
 70
     6
  9
$SURFU
 70
     6
  9
$SURFV
 70
     6
  9
$UCSBASE
  2

  9
$UCSNAME
  2

  9
$UCSORG
 10
0.0
 20
0.0
 30
0.0
  9
$UCSXDIR
 10
1.0
 20
0.0
 30
0.0
  9
$UCSYDIR
 10
0.0
 20
1.0
 30
0.0
  9
$UCSORTHOREF
  2

  9
$UCSORTHOVIEW
 70
     0
  9
$UCSORGTOP
 10
0.0
 20
0.0
 30
0.0
  9
$UCSORGBOTTOM
 10
0.0
 20
0.0
 30
0.0
  9
$UCSORGLEFT
 10
0.0
 20
0.0
 30
0.0
  9
$UCSORGRIGHT
 10
0.0
 20
0.0
 30
0.0
  9
$UCSORGFRONT
 10
0.0
 20
0.0
 30
0.0
  9
$UCSORGBACK
 10
0.0
 20
0.0
 30
0.0
  9
$PUCSBASE
  2

  9
$PUCSNAME
  2

  9
$PUCSORG
 10
0.0
 20
0.0
 30
0.0
  9
$PUCSXDIR
 10
1.0
 20
0.0
 30
0.0
  9
$PUCSYDIR
 10
0.0
 20
1.0
 30
0.0
  9
$PUCSORTHOREF
  2

  9
$PUCSORTHOVIEW
 70
     0
  9
$PUCSORGTOP
 10
0.0
 20
0.0
 30
0.0
  9
$PUCSORGBOTTOM
 10
0.0
 20
0.0
 30
0.0
  9
$PUCSORGLEFT
 10
0.0
 20
0.0
 30
0.0
  9
$PUCSORGRIGHT
 10
0.0
 20
0.0
 30
0.0
  9
$PUCSORGFRONT
 10
0.0
 20
0.0
 30
0.0
  9
$PUCSORGBACK
 10
0.0
 20
0.0
 30
0.0
  9
$USERI1
 70
     0
  9
$USERI2
 70
     0
  9
$USERI3
 70
     0
  9
$USERI4
 70
     0
  9
$USERI5
 70
     0
  9
$USERR1
 40
0.0
  9
$USERR2
 40
0.0
  9
$USERR3
 40
0.0
  9
$USERR4
 40
0.0
  9
$USERR5
 40
0.0
  9
$WORLDVIEW
 70
     1
  9
$SHADEDGE
 70
     3
  9
$SHADEDIF
 70
    70
  9
$TILEMODE
 70
     1
  9
$MAXACTVP
 70
    64
  9
$PINSBASE
 10
0.0
 20
0.0
 30
0.0
  9
$PLIMCHECK
 70
     0
  9
$PEXTMIN
 10
1.0000000000E+20
 20
1.0000000000E+20
 30
1.0000000000E+20
  9
$PEXTMAX
 10
-1.0000000000E+20
 20
-1.0000000000E+20
 30
-1.0000000000E+20
  9
$PLIMMIN
 10
0.0
 20
0.0
  9
$PLIMMAX
 10
420.0
 20
297.0
  9
$UNITMODE
 70
     0
  9
$VISRETAIN
 70
     1
  9
$PLINEGEN
 70
     0
  9
$PSLTSCALE
 70
     1
  9
$TREEDEPTH
 70
  3020
  9
$CMLSTYLE
  2
Standard
  9
$CMLJUST
 70
     0
  9
$CMLSCALE
 40
20.0
  9
$PROXYGRAPHICS
 70
     1
  9
$MEASUREMENT
 70
     1
  9
$CELWEIGHT
370
    -1
  9
$ENDCAPS
280
     0
  9
$JOINSTYLE
280
     0
  9
$LWDISPLAY
290
     1
  9
$INSUNITS
 70
     4
  9
$HYPERLINKBASE
  1

  9
$STYLESHEET
  1

  9
$XEDIT
290
     1
  9
$CEPSNTYPE
380
     0
  9
$PSTYLEMODE
290
     1
  9
$FINGERPRINTGUID
  2
{05eccf84-620d-4076-bde7-ee8020429432}
  9
$VERSIONGUID
  2
{FAEB1C32-E019-11D5-929B-00C0DF256EC4}
  9
$EXTNAMES
290
     1
  9
$PSVPSCALE
 40
0.0
  9
$OLESTARTUP
290
     0
  0
ENDSEC
  0
SECTION
  2
CLASSES
  0
CLASS
  1
ACDBDICTIONARYWDFLT
  2
AcDbDictionaryWithDefault
  3
ObjectDBX Classes
 90
        0
280
     0
281
     0
  0
CLASS
  1
VISUALSTYLE
  2
AcDbVisualStyle
  3
ObjectDBX Classes
 90
     4095
280
     0
281
     0
  0
CLASS
  1
MATERIAL
  2
AcDbMaterial
  3
ObjectDBX Classes
 90
     1153
280
     0
281
     0
  0
CLASS
  1
SCALE
  2
AcDbScale
  3
ObjectDBX Classes
 90
     1153
280
     0
281
     0
  0
CLASS
  1
TABLESTYLE
  2
AcDbTableStyle
  3
ObjectDBX Classes
 90
     4095
280
     0
281
     0
  0
CLASS
  1
MLEADERSTYLE
  2
AcDbMLeaderStyle
  3
ACDB_MLEADERSTYLE_CLASS
 90
     4095
280
     0
281
     0
  0
CLASS
  1
SUN
  2
AcDbSun
  3
SCENEOE
 90
     1153
280
     0
281
     0
  0
CLASS
  1
ACDBPLACEHOLDER
  2
AcDbPlaceHolder
  3
ObjectDBX Classes
 90
        0
280
     0
281
     0
  0
CLASS
  1
LAYOUT
  2
AcDbLayout
  3
ObjectDBX Classes
 90
        0
280
     0
281
     0
  0
ENDSEC
  0
SECTION
  2
TABLES
  0
TABLE
  2
VPORT
  5
8
330
0
100
AcDbSymbolTable
 70
     1
  0
VPORT
  5
29
330
8
100
AcDbSymbolTableRecord
100
AcDbViewportTableRecord
  2
*Active
 70
     0
 10
0.0
 20
0.0
 11
1.0
 21
1.0
 12
10000.0
 22
5000.0
 13
0.0
 23
0.0
 14
10.0
 24
10.0
 15
10.0
 25
10.0
 16
0.0
 26
0.0
 36
1.0
 17
0.0
 27
0.0
 37
0.0
 40
10000.0
 41
2.0
 42
50.0
 43
0.0
 44
0.0
 50
0.0
 51
0.0
 71
     0
 72
  2000
 73
     1
 74
     3
 75
     0
 76
     0
 77
     0
 78
     0
281
     0
 65
     1
110
0.0
120
0.0
130
0.0
111
1.0
121
0.0
131
0.0
112
0.0
122
1.0
132
0.0
 79
     0
146
0.0
  0
ENDTAB
  0
TABLE
  2
LTYPE
  5
5
330
0
100
AcDbSymbolTable
 70
     6
  0
LTYPE
  5
14
330
5
100
AcDbSymbolTableRecord
100
AcDbLinetypeTableRecord
  2
ByBlock
 70
     0
  3

 72
    65
 73
     0
 40
0.0
  0
LTYPE
  5
15
330
5
100
AcDbSymbolTableRecord
100
AcDbLinetypeTableRecord
  2
ByLayer
 70
     0
  3

 72
    65
 73
     0
 40
0.0
  0
LTYPE
  5
16
330
5
100
AcDbSymbolTableRecord
100
AcDbLinetypeTableRecord
  2
Continuous
 70
     0
  3
Solid line
 72
    65
 73
     0
 40
0.0
  0
LTYPE
  5
6E
330
5
100
AcDbSymbolTableRecord
100
AcDbLinetypeTableRecord
  2
HIDDEN
 70
     0
  3
Hidden __ __ __ __ __ __ __ __ __ __ __ __ __ __
 72
    65
 73
     2
 40
1.905
 49
1.27
 74
     0
 49
-0.635
 74
     0
  0
LTYPE
  5
6F
330
5
100
AcDbSymbolTableRecord
100
AcDbLinetypeTableRecord
  2
PHANTOM
 70
     0
  3
Phantom ______  __  __  ______  __  __  ______
 72
    65
 73
     6
 40
12.7
 49
6.35
 74
     0
 49
-1.27
 74
     0
 49
1.27
 74
     0
 49
-1.27
 74
     0
 49
1.27
 74
     0
 49
-1.27
 74
     0
  0
LTYPE
  5
70
330
5
100
AcDbSymbolTableRecord
100
AcDbLinetypeTableRecord
  2
CENTER
 70
     0
  3
Center ____ _ ____ _ ____ _ ____ _ ____ _ ____
 72
    65
 73
     4
 40
10.16
 49
6.35
 74
     0
 49
-1.27
 74
     0
 49
1.27
 74
     0
 49
-1.27
 74
     0
  0
LTYPE
  5
71
330
5
100
AcDbSymbolTableRecord
100
AcDbLinetypeTableRecord
  2
CENTERX2
 70
     0
  3
Center (2x) ________  __  ________  __  _____
 72
    65
 73
     4
 40
20.32
 49
12.7
 74
     0
 49
-2.54
 74
     0
 49
2.54
 74
     0
 49
-2.54
 74
     0
  0
LTYPE
  5
72
330
5
100
AcDbSymbolTableRecord
100
AcDbLinetypeTableRecord
  2
DOT2
 70
     0
  3
Dot (.5x) ........................................
 72
    65
 73
     2
 40
0.635
 49
0.0
 74
     0
 49
-0.635
 74
     0
  0
ENDTAB
  0
TABLE
  2
LAYER
  5
2
330
0
100
AcDbSymbolTable
 70
    13
  0
LAYER
  5
10
330
2
100
AcDbSymbolTableRecord
100
AcDbLayerTableRecord
  2
0
 70
     0
 62
     7
  6
Continuous
370
    -3
390
F
  0
LAYER
  5
73
330
2
100
AcDbSymbolTableRecord
100
AcDbLayerTableRecord
  2
FORMAT
 70
     0
 62
     7
  6
Continuous
370
    -3
390
F
  0
LAYER
  5
74
330
2
100
AcDbSymbolTableRecord
100
AcDbLayerTableRecord
  2
OSA
 70
     0
 62
     7
  6
CENTER
370
    -3
390
F
  0
LAYER
  5
75
330
2
100
AcDbSymbolTableRecord
100
AcDbLayerTableRecord
  2
0_35
 70
     0
 62
     7
  6
Continuous
370
    35
390
F
  0
LAYER
  5
76
330
2
100
AcDbSymbolTableRecord
100
AcDbLayerTableRecord
  2
0_5
 70
     0
 62
     7
  6
Continuous
370
    50
390
F
  0
LAYER
  5
77
330
2
100
AcDbSymbolTableRecord
100
AcDbLayerTableRecord
  2
0_25
 70
     0
 62
     7
  6
Continuous
370
    25
390
F
  0
LAYER
  5
78
330
2
100
AcDbSymbolTableRecord
100
AcDbLayerTableRecord
  2
0_18
 70
     0
 62
     7
  6
Continuous
370
    -3
390
F
  0
LAYER
  5
79
330
2
100
AcDbSymbolTableRecord
100
AcDbLayerTableRecord
  2
SLD-0
 70
     0
 62
   179
  6
Continuous
370
    -3
390
F
  0
LAYER
  5
7A
330
2
100
AcDbSymbolTableRecord
100
AcDbLayerTableRecord
  2
KOTY
 70
     0
 62
     7
  6
Continuous
370
    -3
390
F
  0
LAYER
  5
7B
330
2
100
AcDbSymbolTableRecord
100
AcDbLayerTableRecord
  2
SILNA
 70
     0
 62
   179
  6
Continuous
370
    -3
390
F
  0
LAYER
  5
7C
330
2
100
AcDbSymbolTableRecord
100
AcDbLayerTableRecord
  2
0_18_1
 70
     0
 62
   179
  6
Continuous
370
    -3
390
F
  0
LAYER
  5
7D
330
2
100
AcDbSymbolTableRecord
100
AcDbLayerTableRecord
  2
0_35_1
 70
     0
 62
   179
  6
Continuous
370
    35
390
F
  0
LAYER
  5
7E
330
2
100
AcDbSymbolTableRecord
100
AcDbLayerTableRecord
  2
0_5_1
 70
     0
 62
   179
  6
Continuous
370
    50
390
F
  0
ENDTAB
  0
TABLE
  2
STYLE
  5
3
330
0
100
AcDbSymbolTable
 70
     1
  0
STYLE
  5
11
330
3
100
AcDbSymbolTableRecord
100
AcDbTextStyleTableRecord
  2
Standard
 70
     0
 40
0.0
 41
1.0
 50
0.0
 71
     0
 42
2.0
  3
txt
  4

  0
ENDTAB
  0
TABLE
  2
VIEW
  5
6
330
0
100
AcDbSymbolTable
 70
     0
  0
ENDTAB
  0
TABLE
  2
UCS
  5
7
330
0
100
AcDbSymbolTable
 70
     0
  0
ENDTAB
  0
TABLE
  2
APPID
  5
9
330
0
100
AcDbSymbolTable
 70
     1
  0
APPID
  5
12
330
9
100
AcDbSymbolTableRecord
100
AcDbRegAppTableRecord
  2
ACAD
 70
     0
  0
ENDTAB
  0
TABLE
  2
DIMSTYLE
  5
A
330
0
100
AcDbSymbolTable
 70
     1
100
AcDbDimStyleTable
  0
DIMSTYLE
105
27
330
A
100
AcDbSymbolTableRecord
100
AcDbDimStyleTableRecord
  2
ISO-25
 70
     0
 41
2.5
 42
0.625
 43
3.75
 44
1.25
 73
     0
 74
     0
 77
     1
 78
     8
140
2.5
141
2.5
143
0.0393700787
147
0.625
171
     3
172
     1
178
     0
271
     2
272
     2
274
     3
278
    44
283
     0
284
     8
340
11
  0
ENDTAB
  0
TABLE
  2
BLOCK_RECORD
  5
1
330
0
100
AcDbSymbolTable
 70
     1
  0
BLOCK_RECORD
  5
1F
330
1
100
AcDbSymbolTableRecord
100
AcDbBlockTableRecord
  2
*Model_Space
340
22
  0
BLOCK_RECORD
  5
1B
330
1
100
AcDbSymbolTableRecord
100
AcDbBlockTableRecord
  2
*Paper_Space
340
1E
  0
BLOCK_RECORD
  5
23
330
1
100
AcDbSymbolTableRecord
100
AcDbBlockTableRecord
  2
*Paper_Space0
340
26
  0
ENDTAB
  0
ENDSEC
  0
SECTION
  2
BLOCKS
  0
BLOCK
  5
20
330
1F
100
AcDbEntity
  8
0
100
AcDbBlockBegin
  2
*Model_Space
 70
     0
 10
0.0
 20
0.0
 30
0.0
  3
*Model_Space
  1

  0
ENDBLK
  5
21
330
1F
100
AcDbEntity
  8
0
100
AcDbBlockEnd
  0
BLOCK
  5
1C
330
1B
100
AcDbEntity
 67
     1
  8
0
100
AcDbBlockBegin
  2
*Paper_Space
 70
     0
 10
0.0
 20
0.0
 30
0.0
  3
*Paper_Space
  1

  0
ENDBLK
  5
1D
330
1B
100
AcDbEntity
 67
     1
  8
0
100
AcDbBlockEnd
  0
BLOCK
  5
24
330
23
100
AcDbEntity
  8
0
100
AcDbBlockBegin
  2
*Paper_Space0
 70
     0
 10
0.0
 20
0.0
 30
0.0
  3
*Paper_Space0
  1

  0
ENDBLK
  5
25
330
23
100
AcDbEntity
  8
0
100
AcDbBlockEnd
  0
ENDSEC
  0
SECTION
  2
ENTITIES
  0
LINE
  5
7F
330
1F
100
AcDbEntity
  8
0
  6
Continuous
 62
     7
370
    25
100
AcDbLine
 10
8709.3282051283
 20
5758.9759615385
 30
0.0
 11
8700.994871795
 21
5758.9759615385
 31
0.0
  0
LINE
  5
80
330
1F
100
AcDbEntity
  8
0
  6
Continuous
 62
     7
370
    25
100
AcDbLine
 10
8725.994871795
 20
5758.9759615385
 30
0.0
 11
8717.6615384617
 21
5758.9759615385
 31
0.0
  0
LINE
  5
81
330
1F
100
AcDbEntity
  8
0
  6
Continuous
 62
     7
370
    25
100
AcDbLine
 10
8742.6615384617
 20
5758.9759615385
 30
0.0
 11
8734.3282051283
 21
5758.9759615385
 31
0.0
  0
ARC
  5
82
330
1F
100
AcDbEntity
  8
0
  6
Continuous
 62
     7
370
    25
100
AcDbCircle
 10
8742.8781831406
 20
5758.5593168596
 30
0.0
 40
0.2166446789415204
100
AcDbArc
 50
37.0509748057
 51
180.0
  0
LWPOLYLINE
  5
83
330
1F
100
AcDbEntity
  8
0
  6
Continuous
 62
     7
370
    25
100
AcDbPolyline
 90
        3
 70
   128
 43
0.0
 10
8744.1339693658
 20
5754.8259615386
 10
8744.1435799538
 20
5754.9318657399
 10
8744.1615384617
 20
5755.3759615385
  0
ARC
  5
84
330
1F
100
AcDbEntity
  8
0
  6
Continuous
 62
     7
370
    25
100
AcDbCircle
 10
8738.6615384617
 20
5755.3759615385
 30
0.0
 40
5.500000000000196
100
AcDbArc
 50
0.0
 51
37.0509748058
  0
LINE
  5
85
330
1F
100
AcDbEntity
  8
0
  6
Continuous
 62
     7
370
    25
100
AcDbLine
 10
8617.5948717949
 20
5758.9759615385
 30
0.0
 11
8609.2615384616
 21
5758.9759615385
 31
0.0
  0
LINE
  5
86
330
1F
100
AcDbEntity
  8
0
  6
Continuous
 62
     7
370
    25
100
AcDbLine
 10
8634.2615384616
 20
5758.9759615385
 30
0.0
 11
8625.9282051282
 21
5758.9759615385
 31
0.0
  0
LINE
  5
87
330
1F
100
AcDbEntity
  8
0
  6
Continuous
 62
     7
370
    25
100
AcDbLine
 10
8650.9282051282
 20
5758.9759615385
 30
0.0
 11
8642.5948717949
 21
5758.9759615385
 31
0.0
  0
ARC
  5
88
330
1F
100
AcDbEntity
  8
0
  6
Continuous
 62
     7
370
    25
100
AcDbCircle
 10
8609.0448937826
 20
5758.5593168596
 30
0.0
 40
0.2166446789415204
100
AcDbArc
 50
0.0
 51
142.9490251943
  0
ARC
  5
89
330
1F
100
AcDbEntity
  8
0
  6
Continuous
 62
     7
370
    25
100
AcDbCircle
 10
8613.2615384616
 20
5755.3759615385
 30
0.0
 40
5.500000000000196
100
AcDbArc
 50
142.9490251942
 51
185.739170477
  0
LINE
  5
8A
330
1F
100
AcDbEntity
  8
0
  6
Continuous
 62
     7
370
    25
100
AcDbLine
 10
8625.9282051282
 20
5758.9759615385
 30
0.0
 11
8617.5948717949
 21
5758.9759615385
 31
0.0
  0
LINE
  5
8B
330
1F
100
AcDbEntity
  8
0
  6
Continuous
 62
     7
370
    25
100
AcDbLine
 10
8642.5948717949
 20
5758.9759615385
 30
0.0
 11
8634.2615384616
 21
5758.9759615385
 31
0.0
  0
LINE
  5
8C
330
1F
100
AcDbEntity
  8
0
  6
Continuous
 62
     7
370
    25
100
AcDbLine
 10
8659.2615384615
 20
5758.9759615385
 30
0.0
 11
8650.9282051282
 21
5758.9759615385
 31
0.0
  0
ARC
  5
8D
330
1F
100
AcDbEntity
  8
0
  6
Continuous
 62
     7
370
    25
100
AcDbCircle
 10
8659.4781831405
 20
5758.5593168596
 30
0.0
 40
0.2166446789415204
100
AcDbArc
 50
37.0509748057
 51
180.0
  0
LWPOLYLINE
  5
8E
330
1F
100
AcDbEntity
  8
0
  6
Continuous
 62
     7
370
    25
100
AcDbPolyline
 90
        3
 70
   128
 43
0.0
 10
8660.7339693656
 20
5754.8259615386
 10
8660.7435799537
 20
5754.9318657399
 10
8660.7615384616
 20
5755.3759615385
  0
ARC
  5
8F
330
1F
100
AcDbEntity
  8
0
  6
Continuous
 62
     7
370
    25
100
AcDbCircle
 10
8655.2615384616
 20
5755.3759615385
 30
0.0
 40
5.499999999998745
100
AcDbArc
 50
0.0
 51
37.0509748058
  0
LINE
  5
90
330
1F
100
AcDbEntity
  8
0
  6
Continuous
 62
     7
370
    25
100
AcDbLine
 10
8700.994871795
 20
5758.9759615385
 30
0.0
 11
8692.6615384617
 21
5758.9759615385
 31
0.0
  0
LINE
  5
91
330
1F
100
AcDbEntity
  8
0
  6
Continuous
 62
     7
370
    25
100
AcDbLine
 10
8717.6615384617
 20
5758.9759615385
 30
0.0
 11
8709.3282051283
 21
5758.9759615385
 31
0.0
  0
LINE
  5
92
330
1F
100
AcDbEntity
  8
0
  6
Continuous
 62
     7
370
    25
100
AcDbLine
 10
8734.3282051283
 20
5758.9759615385
 30
0.0
 11
8725.994871795
 21
5758.9759615385
 31
0.0
  0
ARC
  5
93
330
1F
100
AcDbEntity
  8
0
  6
Continuous
 62
     7
370
    25
100
AcDbCircle
 10
8692.4448937827
 20
5758.5593168596
 30
0.0
 40
0.2166446789415204
100
AcDbArc
 50
0.0
 51
142.9490251943
  0
ARC
  5
94
330
1F
100
AcDbEntity
  8
0
  6
Continuous
 62
     7
370
    25
100
AcDbCircle
 10
8696.6615384617
 20
5755.3759615385
 30
0.0
 40
5.500000000000196
100
AcDbArc
 50
142.9490251942
 51
185.739170477
  0
CIRCLE
  5
95
330
1F
100
AcDbEntity
  8
0
  6
Continuous
 62
     7
370
    25
100
AcDbCircle
 10
8635.4615384615
 20
5636.8259615384
 30
0.0
 40
8.400000000000441
  0
CIRCLE
  5
96
330
1F
100
AcDbEntity
  8
0
  6
Continuous
 62
     7
370
    25
100
AcDbCircle
 10
8635.4615384615
 20
5674.8259615384
 30
0.0
 40
8.400000000000441
  0
CIRCLE
  5
97
330
1F
100
AcDbEntity
  8
0
  6
Continuous
 62
     7
370
    25
100
AcDbCircle
 10
8635.4615384615
 20
5655.8259615384
 30
0.0
 40
8.400000000000441
  0
LWPOLYLINE
  5
98
330
1F
100
AcDbEntity
  8
0
  6
Continuous
 62
     7
370
    25
100
AcDbPolyline
 90
        3
 70
   128
 43
0.0
 10
8595.6680181164
 20
5457.08432875
 10
8595.693771509
 20
5457.0581945855
 10
8595.719905673
 20
5457.0324411934
  0
LINE
  5
99
330
1F
100
AcDbEntity
  8
0
  6
Continuous
 62
     7
370
    25
100
AcDbLine
 10
8594.9615384615
 20
5456.5027382336
 30
0.0
 11
8595.6680181165
 21
5457.08432875
 31
0.0
  0
LINE
  5
9A
330
1F
100
AcDbEntity
  8
0
  6
Continuous
 62
     7
370
    25
100
AcDbLine
 10
8595.9615384615
 20
5752.3259615384
 30
0.0
 11
8594.9615384615
 21
5753.1491848432
 31
0.0
  0
LINE
  5
9B
330
1F
100
AcDbEntity
  8
0
  6
Continuous
 62
     7
370
    25
100
AcDbLine
 10
8756.7847617663
 20
5456.3259615384
 30
0.0
 11
8755.9615384615
 21
5457.3259615384
 31
0.0
  0
LINE
  5
9C
330
1F
100
AcDbEntity
  8
0
  6
Continuous
 62
     7
370
    25
100
AcDbLine
 10
8595.7199056731
 20
5457.0324411933
 30
0.0
 11
8595.1383151569
 21
5456.3259615384
 31
0.0
  0
LINE
  5
9D
330
1F
100
AcDbEntity
  8
0
  6
Continuous
 62
     7
370
    25
100
AcDbLine
 10
8595.1383151568
 20
5753.3259615384
 30
0.0
 11
8595.9615384616
 21
5752.3259615384
 31
0.0
  0
LINE
  5
9E
330
1F
100
AcDbEntity
  8
0
  6
Continuous
 62
     7
370
    25
100
AcDbLine
 10
8755.9615384615
 20
5752.3259615385
 30
0.0
 11
8756.7847617663
 21
5753.3259615384
 31
0.0
  0
LINE
  5
9F
330
1F
100
AcDbEntity
  8
0
  6
Continuous
 62
     7
370
    25
100
AcDbLine
 10
8756.9615384615
 20
5753.1491848433
 30
0.0
 11
8755.9615384615
 21
5752.3259615385
 31
0.0
  0
LINE
  5
A0
330
1F
100
AcDbEntity
  8
0
  6
Continuous
 62
     7
370
    25
100
AcDbLine
 10
8755.9615384616
 20
5457.3259615385
 30
0.0
 11
8756.9615384615
 21
5456.5027382337
 31
0.0
  0
LINE
  5
A1
330
1F
100
AcDbEntity
  8
0
  6
Continuous
 62
     7
370
    25
100
AcDbLine
 10
8700.994871795
 20
5758.9759615385
 30
0.0
 11
8700.994871795
 21
5754.8259615386
 31
0.0
  0
LINE
  5
A2
330
1F
100
AcDbEntity
  8
0
  6
Continuous
 62
     7
370
    25
100
AcDbLine
 10
8709.3282051283
 20
5754.8259615386
 30
0.0
 11
8709.3282051283
 21
5758.9759615385
 31
0.0
  0
LINE
  5
A3
330
1F
100
AcDbEntity
  8
0
  6
Continuous
 62
     7
370
    25
100
AcDbLine
 10
8725.994871795
 20
5754.8259615386
 30
0.0
 11
8725.994871795
 21
5758.9759615385
 31
0.0
  0
LINE
  5
A4
330
1F
100
AcDbEntity
  8
0
  6
Continuous
 62
     7
370
    25
100
AcDbLine
 10
8717.6615384617
 20
5758.9759615385
 30
0.0
 11
8717.6615384617
 21
5754.8259615386
 31
0.0
  0
LINE
  5
A5
330
1F
100
AcDbEntity
  8
0
  6
Continuous
 62
     7
370
    25
100
AcDbLine
 10
8742.6615384617
 20
5754.8259615386
 30
0.0
 11
8742.6615384617
 21
5758.9759615385
 31
0.0
  0
LINE
  5
A6
330
1F
100
AcDbEntity
  8
0
  6
Continuous
 62
     7
370
    25
100
AcDbLine
 10
8734.3282051283
 20
5758.9759615385
 30
0.0
 11
8734.3282051283
 21
5754.8259615386
 31
0.0
  0
LINE
  5
A7
330
1F
100
AcDbEntity
  8
0
  6
Continuous
 62
     7
370
    25
100
AcDbLine
 10
8617.5948717949
 20
5754.8259615386
 30
0.0
 11
8617.5948717949
 21
5758.9759615385
 31
0.0
  0
LINE
  5
A8
330
1F
100
AcDbEntity
  8
0
  6
Continuous
 62
     7
370
    25
100
AcDbLine
 10
8609.2615384616
 20
5758.9759615385
 30
0.0
 11
8609.2615384616
 21
5754.8259615386
 31
0.0
  0
LINE
  5
A9
330
1F
100
AcDbEntity
  8
0
  6
Continuous
 62
     7
370
    25
100
AcDbLine
 10
8634.2615384616
 20
5754.8259615386
 30
0.0
 11
8634.2615384616
 21
5758.9759615385
 31
0.0
  0
LINE
  5
AA
330
1F
100
AcDbEntity
  8
0
  6
Continuous
 62
     7
370
    25
100
AcDbLine
 10
8625.9282051282
 20
5758.9759615385
 30
0.0
 11
8625.9282051282
 21
5754.8259615386
 31
0.0
  0
LINE
  5
AB
330
1F
100
AcDbEntity
  8
0
  6
Continuous
 62
     7
370
    25
100
AcDbLine
 10
8650.9282051282
 20
5754.8259615386
 30
0.0
 11
8650.9282051282
 21
5758.9759615385
 31
0.0
  0
LINE
  5
AC
330
1F
100
AcDbEntity
  8
0
  6
Continuous
 62
     7
370
    25
100
AcDbLine
 10
8642.5948717949
 20
5758.9759615385
 30
0.0
 11
8642.5948717949
 21
5754.8259615386
 31
0.0
  0
LINE
  5
AD
330
1F
100
AcDbEntity
  8
0
  6
Continuous
 62
     7
370
    25
100
AcDbLine
 10
8659.2615384616
 20
5754.8259615386
 30
0.0
 11
8659.2615384616
 21
5758.9759615385
 31
0.0
  0
LINE
  5
AE
330
1F
100
AcDbEntity
  8
0
  6
Continuous
 62
     7
370
    25
100
AcDbLine
 10
8692.6615384617
 20
5758.9759615385
 30
0.0
 11
8692.6615384617
 21
5754.8259615386
 31
0.0
  0
LINE
  5
AF
330
1F
100
AcDbEntity
  8
0
  6
Continuous
 62
     7
370
    25
100
AcDbLine
 10
8756.7847617663
 20
5753.3259615386
 30
0.0
 11
8755.9615384615
 21
5752.3259615386
 31
0.0
  0
LINE
  5
B0
330
1F
100
AcDbEntity
  8
0
  6
Continuous
 62
     7
370
    25
100
AcDbLine
 10
8756.7847617663
 20
5754.8259615386
 30
0.0
 11
8755.9615384615
 21
5752.3259615386
 31
0.0
  0
LINE
  5
B1
330
1F
100
AcDbEntity
  8
0
  6
Continuous
 62
     7
370
    25
100
AcDbLine
 10
8756.7847617663
 20
5754.8259615386
 30
0.0
 11
8756.7847617663
 21
5753.3259615386
 31
0.0
  0
LINE
  5
B2
330
1F
100
AcDbEntity
  8
0
  6
Continuous
 62
     7
370
    25
100
AcDbLine
 10
8595.9615384616
 20
5752.3259615386
 30
0.0
 11
8595.9615384616
 21
5457.3259615386
 31
0.0
  0
LINE
  5
B3
330
1F
100
AcDbEntity
  8
0
  6
Continuous
 62
     7
370
    25
100
AcDbLine
 10
8755.9615384615
 20
5752.3259615386
 30
0.0
 11
8595.9615384616
 21
5752.3259615386
 31
0.0
  0
LINE
  5
B4
330
1F
100
AcDbEntity
  8
0
  6
Continuous
 62
     7
370
    25
100
AcDbLine
 10
8755.9615384615
 20
5457.3259615386
 30
0.0
 11
8755.9615384615
 21
5752.3259615386
 31
0.0
  0
LINE
  5
B5
330
1F
100
AcDbEntity
  8
0
  6
Continuous
 62
     7
370
    25
100
AcDbLine
 10
8595.9615384616
 20
5457.3259615386
 30
0.0
 11
8755.9615384615
 21
5457.3259615386
 31
0.0
  0
LINE
  5
B6
330
1F
100
AcDbEntity
  8
0
  6
Continuous
 62
     7
370
    25
100
AcDbLine
 10
8608.4615384615
 20
5699.8259615386
 30
0.0
 11
8668.4615384615
 21
5699.8259615386
 31
0.0
  0
LINE
  5
B7
330
1F
100
AcDbEntity
  8
0
  6
Continuous
 62
     7
370
    25
100
AcDbLine
 10
8668.4615384615
 20
5699.8259615386
 30
0.0
 11
8668.4615384615
 21
5729.8259615386
 31
0.0
  0
LINE
  5
B8
330
1F
100
AcDbEntity
  8
0
  6
Continuous
 62
     7
370
    25
100
AcDbLine
 10
8668.4615384615
 20
5729.8259615386
 30
0.0
 11
8608.4615384615
 21
5729.8259615386
 31
0.0
  0
LINE
  5
B9
330
1F
100
AcDbEntity
  8
0
  6
Continuous
 62
     7
370
    25
100
AcDbLine
 10
8608.4615384615
 20
5729.8259615386
 30
0.0
 11
8608.4615384615
 21
5699.8259615386
 31
0.0
  0
LINE
  5
BA
330
1F
100
AcDbEntity
  8
0
  6
Continuous
 62
     7
370
    25
100
AcDbLine
 10
8709.347330505
 20
5692.4763158556
 30
0.0
 11
8714.1799906585
 21
5693.285881073
 31
0.0
  0
LINE
  5
BB
330
1F
100
AcDbEntity
  8
0
  6
Continuous
 62
     7
370
    25
100
AcDbLine
 10
8708.4139037019
 20
5727.7062564516
 30
0.0
 11
8703.5812435485
 21
5726.8966912343
 31
0.0
  0
LINE
  5
BC
330
1F
100
AcDbEntity
  8
0
  6
Continuous
 62
     7
370
    25
100
AcDbLine
 10
8703.5812435485
 20
5726.8966912343
 30
0.0
 11
8709.347330505
 21
5692.4763158556
 31
0.0
  0
LINE
  5
BD
330
1F
100
AcDbEntity
  8
0
  6
Continuous
 62
     7
370
    25
100
AcDbLine
 10
8686.3051860526
 20
5673.1759615386
 30
0.0
 11
8686.3051860526
 21
5651.1759615386
 31
0.0
  0
LINE
  5
BE
330
1F
100
AcDbEntity
  8
0
  6
Continuous
 62
     7
370
    25
100
AcDbLine
 10
8686.3051860526
 20
5651.1759615386
 30
0.0
 11
8717.1577456236
 21
5651.1759615386
 31
0.0
  0
ARC
  5
BF
330
1F
100
AcDbEntity
  8
0
  6
Continuous
 62
     7
370
    25
100
AcDbCircle
 10
8723.5051860526
 20
5662.1759615386
 30
0.0
 40
12.70000000000049
100
AcDbArc
 50
240.0133329511
 51
119.9866670489
  0
LINE
  5
C0
330
1F
100
AcDbEntity
  8
0
  6
Continuous
 62
     7
370
    25
100
AcDbLine
 10
8716.6837911732
 20
5603.6821542932
 30
0.0
 11
8718.7918992813
 21
5584.2964409918
 31
0.0
  0
LINE
  5
C1
330
1F
100
AcDbEntity
  8
0
  6
Continuous
 62
     7
370
    25
100
AcDbLine
 10
8718.7918992813
 20
5584.2964409918
 30
0.0
 11
8730.7215690052
 21
5585.5937382891
 31
0.0
  0
LINE
  5
C2
330
1F
100
AcDbEntity
  8
0
  6
Continuous
 62
     7
370
    25
100
AcDbLine
 10
8730.7215690052
 20
5585.5937382891
 30
0.0
 11
8728.6134608971
 21
5604.9794515905
 31
0.0
  0
LINE
  5
C3
330
1F
100
AcDbEntity
  8
0
  6
Continuous
 62
     7
370
    25
100
AcDbLine
 10
8728.6134608971
 20
5604.9794515905
 30
0.0
 11
8725.9292852092
 21
5604.6875596986
 31
0.0
  0
LINE
  5
C4
330
1F
100
AcDbEntity
  8
0
  6
Continuous
 62
     7
370
    25
100
AcDbLine
 10
8725.9292852092
 20
5604.6875596986
 30
0.0
 11
8723.3887446687
 21
5628.0498295747
 31
0.0
  0
LINE
  5
C5
330
1F
100
AcDbEntity
  8
0
  6
Continuous
 62
     7
370
    25
100
AcDbLine
 10
8723.3887446687
 20
5628.0498295747
 30
0.0
 11
8716.8274263205
 21
5627.3363160612
 31
0.0
  0
LINE
  5
C6
330
1F
100
AcDbEntity
  8
0
  6
Continuous
 62
     7
370
    25
100
AcDbLine
 10
8719.3679668611
 20
5603.9740461851
 30
0.0
 11
8716.6837911732
 21
5603.6821542932
 31
0.0
  0
LINE
  5
C7
330
1F
100
AcDbEntity
  8
0
  6
Continuous
 62
     7
370
    25
100
AcDbLine
 10
8714.1799906585
 20
5693.285881073
 30
0.0
 11
8708.4139037019
 21
5727.7062564516
 31
0.0
  0
LINE
  5
C8
330
1F
100
AcDbEntity
  8
0
  6
Continuous
 62
     7
370
    25
100
AcDbLine
 10
8717.1577456236
 20
5673.1759615386
 30
0.0
 11
8686.3051860526
 21
5673.1759615386
 31
0.0
  0
LINE
  5
C9
330
1F
100
AcDbEntity
  8
0
  6
Continuous
 62
     7
370
    25
100
AcDbLine
 10
8716.8274263205
 20
5627.3363160612
 30
0.0
 11
8719.3679668611
 21
5603.9740461851
 31
0.0
  0
LINE
  5
CA
330
1F
100
AcDbEntity
  8
0
  6
Continuous
 62
     7
370
    25
100
AcDbLine
 10
8594.9615384615
 20
5753.1491848433
 30
0.0
 11
8595.9615384615
 21
5752.3259615386
 31
0.0
  0
LINE
  5
CB
330
1F
100
AcDbEntity
  8
0
  6
Continuous
 62
     7
370
    25
100
AcDbLine
 10
8593.4615384615
 20
5753.1491848433
 30
0.0
 11
8595.9615384616
 21
5752.3259615386
 31
0.0
  0
LINE
  5
CC
330
1F
100
AcDbEntity
  8
0
  6
Continuous
 62
     7
370
    25
100
AcDbLine
 10
8593.4615384615
 20
5753.1491848433
 30
0.0
 11
8594.9615384615
 21
5753.1491848433
 31
0.0
  0
LINE
  5
CD
330
1F
100
AcDbEntity
  8
0
  6
Continuous
 62
     7
370
    25
100
AcDbLine
 10
8755.9615384615
 20
5752.3259615386
 30
0.0
 11
8758.4615384616
 21
5753.1491848433
 31
0.0
  0
LINE
  5
CE
330
1F
100
AcDbEntity
  8
0
  6
Continuous
 62
     7
370
    25
100
AcDbLine
 10
8758.4615384616
 20
5456.5027382337
 30
0.0
 11
8758.4615384616
 21
5753.1491848433
 31
0.0
  0
LINE
  5
CF
330
1F
100
AcDbEntity
  8
0
  6
Continuous
 62
     7
370
    25
100
AcDbLine
 10
8758.4615384616
 20
5456.5027382337
 30
0.0
 11
8755.9615384615
 21
5457.3259615386
 31
0.0
  0
LINE
  5
D0
330
1F
100
AcDbEntity
  8
0
  6
Continuous
 62
     7
370
    25
100
AcDbLine
 10
8595.9615384616
 20
5457.3259615386
 30
0.0
 11
8593.4615384615
 21
5456.5027382338
 31
0.0
  0
LINE
  5
D1
330
1F
100
AcDbEntity
  8
0
  6
Continuous
 62
     7
370
    25
100
AcDbLine
 10
8593.4615384615
 20
5753.1491848433
 30
0.0
 11
8593.4615384615
 21
5456.5027382338
 31
0.0
  0
LINE
  5
D2
330
1F
100
AcDbEntity
  8
0
  6
Continuous
 62
     7
370
    25
100
AcDbLine
 10
8595.9615384616
 20
5752.3259615386
 30
0.0
 11
8595.1383151568
 21
5753.3259615386
 31
0.0
  0
LINE
  5
D3
330
1F
100
AcDbEntity
  8
0
  6
Continuous
 62
     7
370
    25
100
AcDbLine
 10
8595.1383151568
 20
5754.8259615386
 30
0.0
 11
8595.1383151568
 21
5753.3259615386
 31
0.0
  0
LINE
  5
D4
330
1F
100
AcDbEntity
  8
0
  6
Continuous
 62
     7
370
    25
100
AcDbLine
 10
8595.9615384616
 20
5752.3259615386
 30
0.0
 11
8595.1383151568
 21
5754.8259615386
 31
0.0
  0
LINE
  5
D5
330
1F
100
AcDbEntity
  8
0
  6
Continuous
 62
     7
370
    25
100
AcDbLine
 10
8755.9615384615
 20
5752.3259615385
 30
0.0
 11
8756.9615384616
 21
5753.1491848433
 31
0.0
  0
LINE
  5
D6
330
1F
100
AcDbEntity
  8
0
  6
Continuous
 62
     7
370
    25
100
AcDbLine
 10
8758.4615384616
 20
5753.1491848433
 30
0.0
 11
8756.9615384616
 21
5753.1491848433
 31
0.0
  0
LINE
  5
D7
330
1F
100
AcDbEntity
  8
0
  6
Continuous
 62
     7
370
    25
100
AcDbLine
 10
8756.7847617663
 20
5754.8259615386
 30
0.0
 11
8595.1383151568
 21
5754.8259615386
 31
0.0
  0
LINE
  5
D8
330
1F
100
AcDbEntity
  8
0
  6
Continuous
 62
     7
370
    25
100
AcDbLine
 10
8595.9615384615
 20
5457.3259615386
 30
0.0
 11
8594.9615384615
 21
5456.5027382338
 31
0.0
  0
LINE
  5
D9
330
1F
100
AcDbEntity
  8
0
  6
Continuous
 62
     7
370
    25
100
AcDbLine
 10
8593.4615384615
 20
5456.5027382338
 30
0.0
 11
8594.9615384615
 21
5456.5027382338
 31
0.0
  0
LINE
  5
DA
330
1F
100
AcDbEntity
  8
0
  6
Continuous
 62
     7
370
    25
100
AcDbLine
 10
8756.9615384616
 20
5456.5027382337
 30
0.0
 11
8755.9615384616
 21
5457.3259615386
 31
0.0
  0
LINE
  5
DB
330
1F
100
AcDbEntity
  8
0
  6
Continuous
 62
     7
370
    25
100
AcDbLine
 10
8758.4615384616
 20
5456.5027382337
 30
0.0
 11
8756.9615384616
 21
5456.5027382337
 31
0.0
  0
LINE
  5
DC
330
1F
100
AcDbEntity
  8
0
  6
Continuous
 62
     7
370
    25
100
AcDbLine
 10
8595.1383151567
 20
5456.3259615386
 30
0.0
 11
8595.9615384615
 21
5457.3259615386
 31
0.0
  0
LINE
  5
DD
330
1F
100
AcDbEntity
  8
0
  6
Continuous
 62
     7
370
    25
100
AcDbLine
 10
8595.1383151567
 20
5454.8259615386
 30
0.0
 11
8595.9615384616
 21
5457.3259615386
 31
0.0
  0
LINE
  5
DE
330
1F
100
AcDbEntity
  8
0
  6
Continuous
 62
     7
370
    25
100
AcDbLine
 10
8595.1383151567
 20
5454.8259615386
 30
0.0
 11
8595.1383151567
 21
5456.3259615386
 31
0.0
  0
LINE
  5
DF
330
1F
100
AcDbEntity
  8
0
  6
Continuous
 62
     7
370
    25
100
AcDbLine
 10
8755.9615384615
 20
5457.3259615386
 30
0.0
 11
8756.7847617662
 21
5454.8259615385
 31
0.0
  0
LINE
  5
E0
330
1F
100
AcDbEntity
  8
0
  6
Continuous
 62
     7
370
    25
100
AcDbLine
 10
8595.1383151567
 20
5454.8259615386
 30
0.0
 11
8756.7847617662
 21
5454.8259615385
 31
0.0
  0
LINE
  5
E1
330
1F
100
AcDbEntity
  8
0
  6
Continuous
 62
     7
370
    25
100
AcDbLine
 10
8755.9615384616
 20
5457.3259615385
 30
0.0
 11
8756.7847617662
 21
5456.3259615385
 31
0.0
  0
LINE
  5
E2
330
1F
100
AcDbEntity
  8
0
  6
Continuous
 62
     7
370
    25
100
AcDbLine
 10
8756.7847617662
 20
5454.8259615385
 30
0.0
 11
8756.7847617662
 21
5456.3259615385
 31
0.0
  0
LINE
  5
E3
330
1F
100
AcDbEntity
  8
0
  6
Continuous
 62
     7
370
    25
100
AcDbLine
 10
8748.4615384615
 20
5454.7259615384
 30
0.0
 11
8720.4615384615
 21
5454.7259615384
 31
0.0
  0
LINE
  5
E4
330
1F
100
AcDbEntity
  8
0
  6
Continuous
 62
     7
370
    25
100
AcDbLine
 10
8720.4615384615
 20
5454.7259615384
 30
0.0
 11
8720.4615384615
 21
5454.8259615384
 31
0.0
  0
LINE
  5
E5
330
1F
100
AcDbEntity
  8
0
  6
Continuous
 62
     7
370
    25
100
AcDbLine
 10
8748.4615384615
 20
5454.7259615384
 30
0.0
 11
8748.4615384615
 21
5454.8259615384
 31
0.0
  0
SPLINE
  5
E6
330
1F
100
AcDbEntity
  8
0
  6
Continuous
 62
     7
370
    25
100
AcDbSpline
210
0.0
220
0.0
230
1.0
 70
    11
 71
     3
 72
    31
 73
    27
 74
     0
 42
0.00000001
 43
0.00000001
 40
0.0
 40
0.0
 40
0.0
 40
0.0
 40
0.0598642110986529
 40
0.0920901650595477
 40
0.1250000000000053
 40
0.1579098349404627
 40
0.1901357889013575
 40
0.2500000000000053
 40
0.3098642110986529
 40
0.3420901650595478
 40
0.3750000000000053
 40
0.4079098349404628
 40
0.4401357889013574
 40
0.5000000000000053
 40
0.5598642110986529
 40
0.5920901650595476
 40
0.6250000000000051
 40
0.6579098349404627
 40
0.6901357889013575
 40
0.7500000000000051
 40
0.8098642110986529
 40
0.8420901650595477
 40
0.8750000000000049
 40
0.9079098349404624
 40
0.9401357889013573
 40
1.0
 40
1.0
 40
1.0
 40
1.0
 10
8633.611538461491
 20
5633.621667544436
 30
0.0
 10
8633.23319119435
 20
5633.897176997663
 30
0.0
 10
8632.651172962733
 20
5634.320998017896
 30
0.0
 10
8632.135634604032
 20
5635.151401343417
 30
0.0
 10
8631.86176001621
 20
5635.860925055018
 30
0.0
 10
8631.74192828747
 20
5636.61457706524
 30
0.0
 10
8631.785574374804
 20
5637.584053932579
 30
0.0
 10
8632.179865042004
 20
5638.720671349783
 30
0.0
 10
8632.966982812772
 20
5639.630313371628
 30
0.0
 10
8633.784881967646
 20
5640.153076636817
 30
0.0
 10
8634.497068242345
 20
5640.425412796287
 30
0.0
 10
8635.250008764464
 20
5640.545655623065
 30
0.0
 10
8636.219707583747
 20
5640.501881290061
 30
0.0
 10
8637.356222198576
 20
5640.107650035346
 30
0.0
 10
8638.26589378754
 20
5639.320515134489
 30
0.0
 10
8638.788652881596
 20
5638.502618489472
 30
0.0
 10
8639.060989800044
 20
5637.790431456388
 30
0.0
 10
8639.18123290492
 20
5637.037491970539
 30
0.0
 10
8639.137456214541
 20
5636.06778889209
 30
0.0
 10
8638.743242000655
 20
5634.931303895913
 30
0.0
 10
8637.956047776575
 20
5634.02152945304
 30
0.0
 10
8637.138279224744
 20
5633.498992398962
 30
0.0
 10
8636.42568157391
 20
5633.225943715121
 30
0.0
 10
8635.674278721164
 20
5633.108364209825
 30
0.0
 10
8634.697359166526
 20
5633.139631862325
 30
0.0
 10
8634.03931028054
 20
5633.431763926254
 30
0.0
 10
8633.611538461491
 20
5633.621667544436
 30
0.0
  0
CIRCLE
  5
E7
330
1F
100
AcDbEntity
  8
0
  6
Continuous
 62
     7
370
    25
100
AcDbCircle
 10
8635.4615384615
 20
5636.8259615384
 30
0.0
 40
5.300000000000529
  0
CIRCLE
  5
E8
330
1F
100
AcDbEntity
  8
0
  6
Continuous
 62
     7
370
    25
100
AcDbCircle
 10
8635.4630477076
 20
5636.8248135264
 30
0.0
 40
5.814562096924319
  0
SPLINE
  5
E9
330
1F
100
AcDbEntity
  8
0
  6
Continuous
 62
     7
370
    25
100
AcDbSpline
210
0.0
220
0.0
230
1.0
 70
    11
 71
     3
 72
    39
 73
    35
 74
     0
 42
0.00000001
 43
0.00000001
 40
0.0
 40
0.0
 40
0.0
 40
0.0
 40
0.031250000000001
 40
0.062500000000001
 40
0.0937500000000011
 40
0.125000000000001
 40
0.156250000000001
 40
0.1875000000000011
 40
0.218750000000001
 40
0.2500000000000012
 40
0.2812500000000012
 40
0.3125000000000013
 40
0.3437500000000012
 40
0.3750000000000013
 40
0.4062500000000013
 40
0.4375000000000014
 40
0.4687500000000014
 40
0.5000000000000014
 40
0.5312500000000014
 40
0.5625000000000013
 40
0.5937500000000014
 40
0.6250000000000014
 40
0.6562500000000016
 40
0.6875000000000016
 40
0.7187500000000016
 40
0.7500000000000016
 40
0.7812500000000017
 40
0.8125000000000017
 40
0.8437500000000016
 40
0.8750000000000014
 40
0.9062500000000016
 40
0.9375000000000018
 40
0.9687500000000017
 40
0.9999999999999999
 40
0.9999999999999999
 40
0.9999999999999999
 40
0.9999999999999999
 10
8641.393812486447
 20
5633.400961554079
 30
0.0
 10
8641.595898137866
 20
5633.801971622835
 30
0.0
 10
8642.000069440706
 20
5634.603991760345
 30
0.0
 10
8642.293968876758
 20
5635.927678713828
 30
0.0
 10
8642.341669637812
 20
5637.276436222172
 30
0.0
 10
8642.120585078947
 20
5638.610414347609
 30
0.0
 10
8641.64477224776
 20
5639.875138476414
 30
0.0
 10
8640.931026327999
 20
5641.022866242561
 30
0.0
 10
8640.007175429166
 20
5642.009260602201
 30
0.0
 10
8638.908615643393
 20
5642.796476738092
 30
0.0
 10
8637.677592672324
 20
5643.354245825771
 30
0.0
 10
8636.361406357564
 20
5643.661137546515
 30
0.0
 10
8635.01063905913
 20
5643.705357035378
 30
0.0
 10
8633.677199455326
 20
5643.485205280585
 30
0.0
 10
8632.412331030086
 20
5643.009142505301
 30
0.0
 10
8631.264641928048
 20
5642.295463557859
 30
0.0
 10
8630.278237208398
 20
5641.371594713841
 30
0.0
 10
8629.491023848432
 20
5640.273039736485
 30
0.0
 10
8628.933254017065
 20
5639.042015476935
 30
0.0
 10
8628.62636249515
 20
5637.725829507678
 30
0.0
 10
8628.582142954663
 20
5636.375062115714
 30
0.0
 10
8628.802294717123
 20
5635.041622540531
 30
0.0
 10
8629.27835751336
 20
5633.776754094338
 30
0.0
 10
8629.992036369329
 20
5632.629065047489
 30
0.0
 10
8630.915905558288
 20
5631.64266012804
 30
0.0
 10
8632.014459247352
 20
5630.855447512085
 30
0.0
 10
8633.24548831513
 20
5630.297674904471
 30
0.0
 10
8634.561656339763
 20
5629.990793743536
 30
0.0
 10
8635.91249070199
 20
5629.946535535373
 30
0.0
 10
8637.245680340746
 20
5630.166831607554
 30
0.0
 10
8638.51148156239
 20
5630.642355832587
 30
0.0
 10
8639.65568944386
 20
5631.358044663648
 30
0.0
 10
8640.655086249375
 20
5632.274412523439
 30
0.0
 10
8641.147570407422
 20
5633.025445210533
 30
0.0
 10
8641.393812486447
 20
5633.400961554079
 30
0.0
  0
SPLINE
  5
EA
330
1F
100
AcDbEntity
  8
0
  6
Continuous
 62
     7
370
    25
100
AcDbSpline
210
0.0
220
0.0
230
1.0
 70
     8
 71
     3
 72
     9
 73
     5
 74
     0
 42
0.00000001
 43
0.00000001
 40
0.0
 40
0.0
 40
0.0
 40
0.0
 40
0.4952156616863525
 40
0.9999999999999999
 40
0.9999999999999999
 40
0.9999999999999999
 40
0.9999999999999999
 10
8640.369015738199
 20
5628.325961518678
 30
0.0
 10
8641.179042149479
 20
5629.72896842169
 30
0.0
 10
8642.814746498014
 20
5632.562091465969
 30
0.0
 10
8644.45069291799
 20
5635.395633751164
 30
0.0
 10
8645.276493049118
 20
5636.825961518679
 30
0.0
  0
SPLINE
  5
EB
330
1F
100
AcDbEntity
  8
0
  6
Continuous
 62
     7
370
    25
100
AcDbSpline
210
0.0
220
0.0
230
1.0
 70
     8
 71
     3
 72
     9
 73
     5
 74
     0
 42
0.00000001
 43
0.00000001
 40
0.0
 40
0.0
 40
0.0
 40
0.0
 40
0.4952156616863559
 40
1.0
 40
1.0
 40
1.0
 40
1.0
 10
8630.554061150571
 20
5628.32596153843
 30
0.0
 10
8632.174113975905
 20
5628.325961540029
 30
0.0
 10
8635.445522678565
 20
5628.32596154326
 30
0.0
 10
8638.71741549023
 20
5628.325961526924
 30
0.0
 10
8640.369015738199
 20
5628.325961518678
 30
0.0
  0
SPLINE
  5
EC
330
1F
100
AcDbEntity
  8
0
  6
Continuous
 62
     7
370
    25
100
AcDbSpline
210
0.0
220
0.0
230
1.0
 70
     8
 71
     3
 72
     9
 73
     5
 74
     0
 42
0.00000001
 43
0.00000001
 40
0.0
 40
0.0
 40
0.0
 40
0.0
 40
0.4952156616863512
 40
1.0
 40
1.0
 40
1.0
 40
1.0
 10
8625.646583873862
 20
5636.825961558182
 30
0.0
 10
8626.456610287916
 20
5635.422954656769
 30
0.0
 10
8628.092314642041
 20
5632.58983161572
 30
0.0
 10
8629.728261033726
 20
5629.756289314191
 30
0.0
 10
8630.554061150571
 20
5628.32596153843
 30
0.0
  0
SPLINE
  5
ED
330
1F
100
AcDbEntity
  8
0
  6
Continuous
 62
     7
370
    25
100
AcDbSpline
210
0.0
220
0.0
230
1.0
 70
     8
 71
     3
 72
     9
 73
     5
 74
     0
 42
0.00000001
 43
0.00000001
 40
0.0
 40
0.0
 40
0.0
 40
0.0
 40
0.4952156654701705
 40
1.0
 40
1.0
 40
1.0
 40
1.0
 10
8630.554061149198
 20
5645.325961496546
 30
0.0
 10
8629.744034737467
 20
5643.922954592757
 30
0.0
 10
8628.108330400524
 20
5641.089831568555
 30
0.0
 10
8626.472383992676
 20
5638.25628930437
 30
0.0
 10
8625.646583873862
 20
5636.825961558182
 30
0.0
  0
SPLINE
  5
EE
330
1F
100
AcDbEntity
  8
0
  6
Continuous
 62
     7
370
    25
100
AcDbSpline
210
0.0
220
0.0
230
1.0
 70
     8
 71
     3
 72
     9
 73
     5
 74
     0
 42
0.00000001
 43
0.00000001
 40
0.0
 40
0.0
 40
0.0
 40
0.0
 40
0.4952156665690455
 40
0.9999999999999999
 40
0.9999999999999999
 40
0.9999999999999999
 40
0.9999999999999999
 10
8640.369015772409
 20
5645.32596153843
 30
0.0
 10
8638.748962925272
 20
5645.325961541822
 30
0.0
 10
8635.477554210836
 20
5645.32596154867
 30
0.0
 10
8632.205661387223
 20
5645.325961514031
 30
0.0
 10
8630.554061149198
 20
5645.325961496546
 30
0.0
  0
SPLINE
  5
EF
330
1F
100
AcDbEntity
  8
0
  6
Continuous
 62
     7
370
    25
100
AcDbSpline
210
0.0
220
0.0
230
1.0
 70
     8
 71
     3
 72
     9
 73
     5
 74
     0
 42
0.00000001
 43
0.00000001
 40
0.0
 40
0.0
 40
0.0
 40
0.0
 40
0.4952156616863589
 40
1.0
 40
1.0
 40
1.0
 40
1.0
 10
8645.276493049118
 20
5636.825961518679
 30
0.0
 10
8644.466466635064
 20
5638.22896842009
 30
0.0
 10
8642.830762280939
 20
5641.062091461141
 30
0.0
 10
8641.194815889254
 20
5643.895633762669
 30
0.0
 10
8640.369015772409
 20
5645.32596153843
 30
0.0
  0
SPLINE
  5
F0
330
1F
100
AcDbEntity
  8
0
  6
Continuous
 62
     7
370
    25
100
AcDbSpline
210
0.0
220
0.0
230
1.0
 70
    11
 71
     3
 72
    31
 73
    27
 74
     0
 42
0.00000001
 43
0.00000001
 40
0.0
 40
0.0
 40
0.0
 40
0.0
 40
0.059864211098653
 40
0.0920901650595477
 40
0.1250000000000055
 40
0.1579098349404628
 40
0.1901357889013576
 40
0.2500000000000052
 40
0.3098642110986531
 40
0.3420901650595479
 40
0.3750000000000053
 40
0.4079098349404629
 40
0.4401357889013575
 40
0.5000000000000053
 40
0.5598642110986533
 40
0.5920901650595479
 40
0.6250000000000051
 40
0.657909834940463
 40
0.6901357889013572
 40
0.7500000000000052
 40
0.8098642110986527
 40
0.8420901650595476
 40
0.8750000000000049
 40
0.9079098349404623
 40
0.9401357889013572
 40
1.0
 40
1.0
 40
1.0
 40
1.0
 10
8633.611538461484
 20
5671.621667544432
 30
0.0
 10
8633.233191194344
 20
5671.897176997661
 30
0.0
 10
8632.651172962727
 20
5672.320998017894
 30
0.0
 10
8632.135634604027
 20
5673.151401343413
 30
0.0
 10
8631.861760016203
 20
5673.860925055015
 30
0.0
 10
8631.741928287465
 20
5674.614577065237
 30
0.0
 10
8631.785574374799
 20
5675.584053932575
 30
0.0
 10
8632.179865042
 20
5676.720671349779
 30
0.0
 10
8632.966982812766
 20
5677.630313371626
 30
0.0
 10
8633.78488196764
 20
5678.153076636813
 30
0.0
 10
8634.497068242337
 20
5678.425412796283
 30
0.0
 10
8635.250008764458
 20
5678.545655623061
 30
0.0
 10
8636.219707583741
 20
5678.501881290058
 30
0.0
 10
8637.356222198569
 20
5678.107650035343
 30
0.0
 10
8638.265893787533
 20
5677.320515134486
 30
0.0
 10
8638.78865288159
 20
5676.502618489469
 30
0.0
 10
8639.060989800037
 20
5675.790431456386
 30
0.0
 10
8639.181232904915
 20
5675.037491970536
 30
0.0
 10
8639.137456214534
 20
5674.067788892086
 30
0.0
 10
8638.74324200065
 20
5672.93130389591
 30
0.0
 10
8637.956047776568
 20
5672.021529453037
 30
0.0
 10
8637.138279224739
 20
5671.498992398959
 30
0.0
 10
8636.425681573905
 20
5671.225943715117
 30
0.0
 10
8635.674278721159
 20
5671.108364209822
 30
0.0
 10
8634.69735916652
 20
5671.139631862322
 30
0.0
 10
8634.039310280534
 20
5671.431763926251
 30
0.0
 10
8633.611538461484
 20
5671.621667544432
 30
0.0
  0
CIRCLE
  5
F1
330
1F
100
AcDbEntity
  8
0
  6
Continuous
 62
     7
370
    25
100
AcDbCircle
 10
8635.4615384615
 20
5674.8259615384
 30
0.0
 40
5.300000000001439
  0
CIRCLE
  5
F2
330
1F
100
AcDbEntity
  8
0
  6
Continuous
 62
     7
370
    25
100
AcDbCircle
 10
8635.4630477076
 20
5674.8248135264
 30
0.0
 40
5.814562096924773
  0
SPLINE
  5
F3
330
1F
100
AcDbEntity
  8
0
  6
Continuous
 62
     7
370
    25
100
AcDbSpline
210
0.0
220
0.0
230
1.0
 70
    11
 71
     3
 72
    39
 73
    35
 74
     0
 42
0.00000001
 43
0.00000001
 40
0.0
 40
0.0
 40
0.0
 40
0.0
 40
0.0312500000000009
 40
0.0625000000000008
 40
0.0937500000000007
 40
0.1250000000000008
 40
0.156250000000001
 40
0.1875000000000009
 40
0.2187500000000008
 40
0.2500000000000011
 40
0.281250000000001
 40
0.3125000000000011
 40
0.343750000000001
 40
0.3750000000000009
 40
0.4062500000000011
 40
0.4375000000000011
 40
0.468750000000001
 40
0.500000000000001
 40
0.5312500000000013
 40
0.5625000000000012
 40
0.5937500000000012
 40
0.6250000000000013
 40
0.6562500000000014
 40
0.6875000000000012
 40
0.7187500000000012
 40
0.7500000000000013
 40
0.7812500000000013
 40
0.8125000000000014
 40
0.8437500000000013
 40
0.8750000000000013
 40
0.9062500000000012
 40
0.9375000000000014
 40
0.9687500000000013
 40
0.9999999999999999
 40
0.9999999999999999
 40
0.9999999999999999
 40
0.9999999999999999
 10
8641.393812486442
 20
5671.400961554075
 30
0.0
 10
8641.59589813786
 20
5671.801971622832
 30
0.0
 10
8642.0000694407
 20
5672.603991760342
 30
0.0
 10
8642.293968876751
 20
5673.927678713824
 30
0.0
 10
8642.341669637806
 20
5675.276436222169
 30
0.0
 10
8642.120585078941
 20
5676.610414347605
 30
0.0
 10
8641.644772247755
 20
5677.87513847641
 30
0.0
 10
8640.931026327993
 20
5679.022866242557
 30
0.0
 10
8640.007175429158
 20
5680.009260602198
 30
0.0
 10
8638.908615643388
 20
5680.796476738088
 30
0.0
 10
8637.677592672317
 20
5681.354245825768
 30
0.0
 10
8636.361406357559
 20
5681.661137546512
 30
0.0
 10
8635.010639059123
 20
5681.705357035375
 30
0.0
 10
8633.677199455318
 20
5681.485205280582
 30
0.0
 10
8632.412331030078
 20
5681.009142505297
 30
0.0
 10
8631.264641928043
 20
5680.295463557855
 30
0.0
 10
8630.278237208395
 20
5679.371594713838
 30
0.0
 10
8629.491023848426
 20
5678.273039736481
 30
0.0
 10
8628.93325401706
 20
5677.042015476932
 30
0.0
 10
8628.626362495144
 20
5675.725829507674
 30
0.0
 10
8628.582142954656
 20
5674.375062115711
 30
0.0
 10
8628.802294717118
 20
5673.041622540527
 30
0.0
 10
8629.278357513353
 20
5671.776754094335
 30
0.0
 10
8629.992036369324
 20
5670.629065047487
 30
0.0
 10
8630.91590555828
 20
5669.642660128036
 30
0.0
 10
8632.014459247344
 20
5668.855447512082
 30
0.0
 10
8633.245488315122
 20
5668.297674904467
 30
0.0
 10
8634.561656339758
 20
5667.990793743532
 30
0.0
 10
8635.912490701985
 20
5667.94653553537
 30
0.0
 10
8637.24568034074
 20
5668.16683160755
 30
0.0
 10
8638.511481562384
 20
5668.642355832583
 30
0.0
 10
8639.655689443853
 20
5669.358044663644
 30
0.0
 10
8640.655086249368
 20
5670.274412523436
 30
0.0
 10
8641.147570407416
 20
5671.025445210529
 30
0.0
 10
8641.393812486442
 20
5671.400961554075
 30
0.0
  0
SPLINE
  5
F4
330
1F
100
AcDbEntity
  8
0
  6
Continuous
 62
     7
370
    25
100
AcDbSpline
210
0.0
220
0.0
230
1.0
 70
     8
 71
     3
 72
     9
 73
     5
 74
     0
 42
0.00000001
 43
0.00000001
 40
0.0
 40
0.0
 40
0.0
 40
0.0
 40
0.4952156616863525
 40
0.9999999999999999
 40
0.9999999999999999
 40
0.9999999999999999
 40
0.9999999999999999
 10
8640.369015738193
 20
5666.325961518675
 30
0.0
 10
8641.179042149473
 20
5667.728968421688
 30
0.0
 10
8642.814746498007
 20
5670.562091465966
 30
0.0
 10
8644.450692917984
 20
5673.39563375116
 30
0.0
 10
8645.276493049112
 20
5674.825961518675
 30
0.0
  0
SPLINE
  5
F5
330
1F
100
AcDbEntity
  8
0
  6
Continuous
 62
     7
370
    25
100
AcDbSpline
210
0.0
220
0.0
230
1.0
 70
     8
 71
     3
 72
     9
 73
     5
 74
     0
 42
0.00000001
 43
0.00000001
 40
0.0
 40
0.0
 40
0.0
 40
0.0
 40
0.4952156616863559
 40
1.0
 40
1.0
 40
1.0
 40
1.0
 10
8630.554061150566
 20
5666.325961538426
 30
0.0
 10
8632.174113975898
 20
5666.325961540026
 30
0.0
 10
8635.445522678558
 20
5666.325961543256
 30
0.0
 10
8638.717415490224
 20
5666.325961526921
 30
0.0
 10
8640.369015738193
 20
5666.325961518675
 30
0.0
  0
SPLINE
  5
F6
330
1F
100
AcDbEntity
  8
0
  6
Continuous
 62
     7
370
    25
100
AcDbSpline
210
0.0
220
0.0
230
1.0
 70
     8
 71
     3
 72
     9
 73
     5
 74
     0
 42
0.00000001
 43
0.00000001
 40
0.0
 40
0.0
 40
0.0
 40
0.0
 40
0.4952156616863515
 40
1.0
 40
1.0
 40
1.0
 40
1.0
 10
8625.646583873857
 20
5674.825961558178
 30
0.0
 10
8626.456610287909
 20
5673.422954656767
 30
0.0
 10
8628.092314642035
 20
5670.589831615716
 30
0.0
 10
8629.72826103372
 20
5667.756289314188
 30
0.0
 10
8630.554061150566
 20
5666.325961538426
 30
0.0
  0
SPLINE
  5
F7
330
1F
100
AcDbEntity
  8
0
  6
Continuous
 62
     7
370
    25
100
AcDbSpline
210
0.0
220
0.0
230
1.0
 70
     8
 71
     3
 72
     9
 73
     5
 74
     0
 42
0.00000001
 43
0.00000001
 40
0.0
 40
0.0
 40
0.0
 40
0.0
 40
0.4952156654701713
 40
1.0
 40
1.0
 40
1.0
 40
1.0
 10
8630.55406114919
 20
5683.325961496543
 30
0.0
 10
8629.74403473746
 20
5681.922954592755
 30
0.0
 10
8628.108330400519
 20
5679.089831568552
 30
0.0
 10
8626.47238399267
 20
5676.256289304367
 30
0.0
 10
8625.646583873857
 20
5674.825961558178
 30
0.0
  0
SPLINE
  5
F8
330
1F
100
AcDbEntity
  8
0
  6
Continuous
 62
     7
370
    25
100
AcDbSpline
210
0.0
220
0.0
230
1.0
 70
     8
 71
     3
 72
     9
 73
     5
 74
     0
 42
0.00000001
 43
0.00000001
 40
0.0
 40
0.0
 40
0.0
 40
0.0
 40
0.4952156665690459
 40
1.0
 40
1.0
 40
1.0
 40
1.0
 10
8640.369015772403
 20
5683.325961538427
 30
0.0
 10
8638.748962925265
 20
5683.325961541818
 30
0.0
 10
8635.477554210831
 20
5683.325961548667
 30
0.0
 10
8632.205661387216
 20
5683.325961514029
 30
0.0
 10
8630.55406114919
 20
5683.325961496543
 30
0.0
  0
SPLINE
  5
F9
330
1F
100
AcDbEntity
  8
0
  6
Continuous
 62
     7
370
    25
100
AcDbSpline
210
0.0
220
0.0
230
1.0
 70
     8
 71
     3
 72
     9
 73
     5
 74
     0
 42
0.00000001
 43
0.00000001
 40
0.0
 40
0.0
 40
0.0
 40
0.0
 40
0.4952156616863579
 40
1.0
 40
1.0
 40
1.0
 40
1.0
 10
8645.276493049112
 20
5674.825961518675
 30
0.0
 10
8644.466466635058
 20
5676.228968420087
 30
0.0
 10
8642.830762280932
 20
5679.062091461137
 30
0.0
 10
8641.194815889246
 20
5681.895633762665
 30
0.0
 10
8640.369015772403
 20
5683.325961538427
 30
0.0
  0
SPLINE
  5
FA
330
1F
100
AcDbEntity
  8
0
  6
Continuous
 62
     7
370
    25
100
AcDbSpline
210
0.0
220
0.0
230
1.0
 70
    11
 71
     3
 72
    31
 73
    27
 74
     0
 42
0.00000001
 43
0.00000001
 40
0.0
 40
0.0
 40
0.0
 40
0.0
 40
0.0598642110986528
 40
0.0920901650595476
 40
0.1250000000000052
 40
0.1579098349404627
 40
0.1901357889013575
 40
0.2500000000000051
 40
0.3098642110986529
 40
0.3420901650595478
 40
0.3750000000000053
 40
0.4079098349404628
 40
0.4401357889013574
 40
0.5000000000000053
 40
0.5598642110986529
 40
0.5920901650595476
 40
0.6250000000000051
 40
0.6579098349404627
 40
0.6901357889013575
 40
0.7500000000000051
 40
0.809864211098653
 40
0.8420901650595477
 40
0.875000000000005
 40
0.9079098349404624
 40
0.9401357889013573
 40
1.0
 40
1.0
 40
1.0
 40
1.0
 10
8633.611538461484
 20
5652.621667544433
 30
0.0
 10
8633.233191194344
 20
5652.897176997662
 30
0.0
 10
8632.651172962727
 20
5653.320998017894
 30
0.0
 10
8632.135634604027
 20
5654.151401343413
 30
0.0
 10
8631.861760016203
 20
5654.860925055015
 30
0.0
 10
8631.741928287465
 20
5655.614577065237
 30
0.0
 10
8631.785574374799
 20
5656.584053932575
 30
0.0
 10
8632.179865042
 20
5657.720671349779
 30
0.0
 10
8632.966982812766
 20
5658.630313371626
 30
0.0
 10
8633.78488196764
 20
5659.153076636813
 30
0.0
 10
8634.497068242337
 20
5659.425412796283
 30
0.0
 10
8635.250008764458
 20
5659.545655623061
 30
0.0
 10
8636.219707583741
 20
5659.501881290057
 30
0.0
 10
8637.356222198569
 20
5659.107650035343
 30
0.0
 10
8638.265893787533
 20
5658.320515134486
 30
0.0
 10
8638.78865288159
 20
5657.50261848947
 30
0.0
 10
8639.060989800037
 20
5656.790431456386
 30
0.0
 10
8639.181232904915
 20
5656.037491970535
 30
0.0
 10
8639.137456214534
 20
5655.067788892086
 30
0.0
 10
8638.74324200065
 20
5653.931303895909
 30
0.0
 10
8637.956047776568
 20
5653.021529453037
 30
0.0
 10
8637.138279224739
 20
5652.498992398959
 30
0.0
 10
8636.425681573905
 20
5652.225943715117
 30
0.0
 10
8635.674278721159
 20
5652.108364209822
 30
0.0
 10
8634.69735916652
 20
5652.139631862322
 30
0.0
 10
8634.039310280534
 20
5652.431763926251
 30
0.0
 10
8633.611538461484
 20
5652.621667544433
 30
0.0
  0
CIRCLE
  5
FB
330
1F
100
AcDbEntity
  8
0
  6
Continuous
 62
     7
370
    25
100
AcDbCircle
 10
8635.4615384615
 20
5655.8259615384
 30
0.0
 40
5.300000000000651
  0
CIRCLE
  5
FC
330
1F
100
AcDbEntity
  8
0
  6
Continuous
 62
     7
370
    25
100
AcDbCircle
 10
8635.4630477076
 20
5655.8248135264
 30
0.0
 40
5.814562096922077
  0
SPLINE
  5
FD
330
1F
100
AcDbEntity
  8
0
  6
Continuous
 62
     7
370
    25
100
AcDbSpline
210
0.0
220
0.0
230
1.0
 70
    11
 71
     3
 72
    39
 73
    35
 74
     0
 42
0.00000001
 43
0.00000001
 40
0.0
 40
0.0
 40
0.0
 40
0.0
 40
0.031250000000001
 40
0.0625000000000009
 40
0.093750000000001
 40
0.125000000000001
 40
0.1562500000000011
 40
0.187500000000001
 40
0.218750000000001
 40
0.2500000000000012
 40
0.2812500000000012
 40
0.3125000000000012
 40
0.3437500000000012
 40
0.3750000000000013
 40
0.4062500000000014
 40
0.4375000000000014
 40
0.4687500000000014
 40
0.5000000000000014
 40
0.5312500000000014
 40
0.5625000000000012
 40
0.5937500000000014
 40
0.6250000000000016
 40
0.6562500000000016
 40
0.6875000000000016
 40
0.7187500000000014
 40
0.7500000000000016
 40
0.7812500000000016
 40
0.8125000000000017
 40
0.8437500000000016
 40
0.8750000000000016
 40
0.9062500000000014
 40
0.9375000000000017
 40
0.9687500000000017
 40
1.0
 40
1.0
 40
1.0
 40
1.0
 10
8641.393812486442
 20
5652.400961554076
 30
0.0
 10
8641.59589813786
 20
5652.801971622831
 30
0.0
 10
8642.0000694407
 20
5653.603991760342
 30
0.0
 10
8642.293968876751
 20
5654.927678713824
 30
0.0
 10
8642.341669637806
 20
5656.27643622217
 30
0.0
 10
8642.120585078941
 20
5657.610414347605
 30
0.0
 10
8641.644772247755
 20
5658.87513847641
 30
0.0
 10
8640.931026327993
 20
5660.022866242557
 30
0.0
 10
8640.007175429158
 20
5661.009260602197
 30
0.0
 10
8638.908615643388
 20
5661.796476738088
 30
0.0
 10
8637.677592672317
 20
5662.354245825767
 30
0.0
 10
8636.361406357559
 20
5662.661137546512
 30
0.0
 10
8635.010639059123
 20
5662.705357035375
 30
0.0
 10
8633.677199455318
 20
5662.485205280582
 30
0.0
 10
8632.412331030078
 20
5662.009142505297
 30
0.0
 10
8631.264641928043
 20
5661.295463557855
 30
0.0
 10
8630.278237208395
 20
5660.371594713838
 30
0.0
 10
8629.491023848426
 20
5659.273039736481
 30
0.0
 10
8628.93325401706
 20
5658.042015476933
 30
0.0
 10
8628.626362495144
 20
5656.725829507675
 30
0.0
 10
8628.582142954656
 20
5655.375062115711
 30
0.0
 10
8628.802294717118
 20
5654.041622540527
 30
0.0
 10
8629.278357513353
 20
5652.776754094335
 30
0.0
 10
8629.992036369324
 20
5651.629065047487
 30
0.0
 10
8630.91590555828
 20
5650.642660128036
 30
0.0
 10
8632.014459247344
 20
5649.855447512083
 30
0.0
 10
8633.245488315122
 20
5649.297674904467
 30
0.0
 10
8634.561656339758
 20
5648.990793743532
 30
0.0
 10
8635.912490701985
 20
5648.94653553537
 30
0.0
 10
8637.24568034074
 20
5649.16683160755
 30
0.0
 10
8638.511481562384
 20
5649.642355832584
 30
0.0
 10
8639.655689443853
 20
5650.358044663645
 30
0.0
 10
8640.655086249368
 20
5651.274412523436
 30
0.0
 10
8641.147570407416
 20
5652.02544521053
 30
0.0
 10
8641.393812486442
 20
5652.400961554076
 30
0.0
  0
SPLINE
  5
FE
330
1F
100
AcDbEntity
  8
0
  6
Continuous
 62
     7
370
    25
100
AcDbSpline
210
0.0
220
0.0
230
1.0
 70
     8
 71
     3
 72
     9
 73
     5
 74
     0
 42
0.00000001
 43
0.00000001
 40
0.0
 40
0.0
 40
0.0
 40
0.0
 40
0.4952156616863525
 40
0.9999999999999999
 40
0.9999999999999999
 40
0.9999999999999999
 40
0.9999999999999999
 10
8640.369015738193
 20
5647.325961518674
 30
0.0
 10
8641.179042149473
 20
5648.728968421687
 30
0.0
 10
8642.814746498007
 20
5651.562091465966
 30
0.0
 10
8644.450692917984
 20
5654.39563375116
 30
0.0
 10
8645.276493049112
 20
5655.825961518675
 30
0.0
  0
SPLINE
  5
FF
330
1F
100
AcDbEntity
  8
0
  6
Continuous
 62
     7
370
    25
100
AcDbSpline
210
0.0
220
0.0
230
1.0
 70
     8
 71
     3
 72
     9
 73
     5
 74
     0
 42
0.00000001
 43
0.00000001
 40
0.0
 40
0.0
 40
0.0
 40
0.0
 40
0.4952156616863559
 40
1.0
 40
1.0
 40
1.0
 40
1.0
 10
8630.554061150566
 20
5647.325961538427
 30
0.0
 10
8632.174113975898
 20
5647.325961540026
 30
0.0
 10
8635.445522678558
 20
5647.325961543256
 30
0.0
 10
8638.717415490224
 20
5647.325961526921
 30
0.0
 10
8640.369015738193
 20
5647.325961518674
 30
0.0
  0
SPLINE
  5
100
330
1F
100
AcDbEntity
  8
0
  6
Continuous
 62
     7
370
    25
100
AcDbSpline
210
0.0
220
0.0
230
1.0
 70
     8
 71
     3
 72
     9
 73
     5
 74
     0
 42
0.00000001
 43
0.00000001
 40
0.0
 40
0.0
 40
0.0
 40
0.0
 40
0.4952156616863512
 40
1.0
 40
1.0
 40
1.0
 40
1.0
 10
8625.646583873857
 20
5655.825961558178
 30
0.0
 10
8626.456610287909
 20
5654.422954656767
 30
0.0
 10
8628.092314642035
 20
5651.589831615717
 30
0.0
 10
8629.72826103372
 20
5648.756289314188
 30
0.0
 10
8630.554061150566
 20
5647.325961538427
 30
0.0
  0
SPLINE
  5
101
330
1F
100
AcDbEntity
  8
0
  6
Continuous
 62
     7
370
    25
100
AcDbSpline
210
0.0
220
0.0
230
1.0
 70
     8
 71
     3
 72
     9
 73
     5
 74
     0
 42
0.00000001
 43
0.00000001
 40
0.0
 40
0.0
 40
0.0
 40
0.0
 40
0.4952156654701703
 40
1.0
 40
1.0
 40
1.0
 40
1.0
 10
8630.55406114919
 20
5664.325961496543
 30
0.0
 10
8629.74403473746
 20
5662.922954592754
 30
0.0
 10
8628.108330400519
 20
5660.089831568552
 30
0.0
 10
8626.47238399267
 20
5657.256289304368
 30
0.0
 10
8625.646583873857
 20
5655.825961558178
 30
0.0
  0
SPLINE
  5
102
330
1F
100
AcDbEntity
  8
0
  6
Continuous
 62
     7
370
    25
100
AcDbSpline
210
0.0
220
0.0
230
1.0
 70
     8
 71
     3
 72
     9
 73
     5
 74
     0
 42
0.00000001
 43
0.00000001
 40
0.0
 40
0.0
 40
0.0
 40
0.0
 40
0.4952156665690455
 40
0.9999999999999999
 40
0.9999999999999999
 40
0.9999999999999999
 40
0.9999999999999999
 10
8640.369015772403
 20
5664.325961538427
 30
0.0
 10
8638.748962925265
 20
5664.325961541818
 30
0.0
 10
8635.477554210831
 20
5664.325961548667
 30
0.0
 10
8632.205661387216
 20
5664.325961514029
 30
0.0
 10
8630.55406114919
 20
5664.325961496543
 30
0.0
  0
SPLINE
  5
103
330
1F
100
AcDbEntity
  8
0
  6
Continuous
 62
     7
370
    25
100
AcDbSpline
210
0.0
220
0.0
230
1.0
 70
     8
 71
     3
 72
     9
 73
     5
 74
     0
 42
0.00000001
 43
0.00000001
 40
0.0
 40
0.0
 40
0.0
 40
0.0
 40
0.4952156616863586
 40
1.0
 40
1.0
 40
1.0
 40
1.0
 10
8645.276493049112
 20
5655.825961518675
 30
0.0
 10
8644.466466635058
 20
5657.228968420087
 30
0.0
 10
8642.830762280932
 20
5660.062091461137
 30
0.0
 10
8641.194815889246
 20
5662.895633762666
 30
0.0
 10
8640.369015772403
 20
5664.325961538427
 30
0.0
  0
ARC
  5
104
330
1F
100
AcDbEntity
  8
0
  6
Continuous
 62
     7
370
    25
100
AcDbCircle
 10
8675.9615384615
 20
5493.8259615385
 30
0.0
 40
5.599999999999883
100
AcDbArc
 50
94.4980126048
 51
84.2523695851
  0
SPLINE
  5
105
330
1F
100
AcDbEntity
  8
0
  6
Continuous
 62
     7
370
    25
100
AcDbSpline
210
0.0
220
0.0
230
1.0
 70
    24
 71
     3
 72
    13
 73
     9
 74
     0
 42
0.00000001
 43
0.00000001
 40
0.0
 40
0.0
 40
0.0
 40
0.0
 40
0.0254342784919342
 40
0.2391405405228668
 40
0.4528843033372799
 40
0.6670512278740933
 40
0.8818628295038904
 40
1.0
 40
1.0
 40
1.0
 40
1.0
 10
8675.522361171774
 20
5499.408713844326
 30
0.0
 10
8675.522361171774
 20
5499.408679832043
 30
0.0
 10
8675.522361171774
 20
5499.408360038583
 30
0.0
 10
8675.522361171774
 20
5499.398171442071
 30
0.0
 10
8675.522361171774
 20
5499.362787189022
 30
0.0
 10
8675.522361171774
 20
5499.309966432116
 30
0.0
 10
8675.522361171774
 20
5499.255227256301
 30
0.0
 10
8675.522361171774
 20
5499.220422433164
 30
0.0
 10
8675.522361171774
 20
5499.208072955798
 30
0.0
  0
ARC
  5
106
330
1F
100
AcDbEntity
  8
0
  6
Continuous
 62
     7
370
    25
100
AcDbCircle
 10
8675.9615384615
 20
5493.8259615385
 30
0.0
 40
5.400000000000104
100
AcDbArc
 50
94.6649681226
 51
84.0387368535
  0
SPLINE
  5
107
330
1F
100
AcDbEntity
  8
0
  6
Continuous
 62
     7
370
    25
100
AcDbSpline
210
0.0
220
0.0
230
1.0
 70
    24
 71
     3
 72
    13
 73
     9
 74
     0
 42
0.00000001
 43
0.00000001
 40
0.0
 40
0.0
 40
0.0
 40
0.0
 40
0.0078315083444775
 40
0.2242134010656828
 40
0.440506527411377
 40
0.6560344530517136
 40
0.8704785517425164
 40
0.9999999999999999
 40
0.9999999999999999
 40
0.9999999999999999
 40
0.9999999999999999
 10
8676.522361171774
 20
5499.196760165112
 30
0.0
 10
8676.522361171774
 20
5499.197578803914
 30
0.0
 10
8676.522361171774
 20
5499.221016152372
 30
0.0
 10
8676.522361171774
 20
5499.267319659116
 30
0.0
 10
8676.522361171774
 20
5499.327321871973
 30
0.0
 10
8676.522361171774
 20
5499.372136754094
 30
0.0
 10
8676.522361171774
 20
5499.394782638214
 30
0.0
 10
8676.522361171774
 20
5499.396980737396
 30
0.0
 10
8676.522361171774
 20
5499.397808439449
 30
0.0
  0
LINE
  5
108
330
1F
100
AcDbEntity
  8
0
  6
Continuous
 62
     7
370
    25
100
AcDbLine
 10
8675.5223611718
 20
5494.4491416358
 30
0.0
 11
8675.5223611718
 21
5493.8791962415
 31
0.0
  0
LINE
  5
109
330
1F
100
AcDbEntity
  8
0
  6
Continuous
 62
     7
370
    25
100
AcDbLine
 10
8676.7085878335
 20
5491.2025664264
 30
0.0
 11
8676.7085878335
 21
5494.1175924167
 31
0.0
  0
LINE
  5
10A
330
1F
100
AcDbEntity
  8
0
  6
Continuous
 62
     7
370
    25
100
AcDbLine
 10
8676.7085878335
 20
5494.1175924167
 30
0.0
 11
8676.5223611718
 21
5494.2998054143
 31
0.0
  0
ARC
  5
10B
330
1F
100
AcDbEntity
  8
0
  6
Continuous
 62
     7
370
    25
100
AcDbCircle
 10
8675.5223611718
 20
5495.61128989
 30
0.0
 40
1.53316292829734
100
AcDbArc
 50
310.7111856769
 51
49.2888143231
  0
ARC
  5
10C
330
1F
100
AcDbEntity
  8
0
  6
Continuous
 62
     7
370
    25
100
AcDbCircle
 10
8676.2085878335
 20
5491.2025664264
 30
0.0
 40
0.500000000001819
100
AcDbArc
 50
180.0
 51
0.0
  0
LINE
  5
10D
330
1F
100
AcDbEntity
  8
0
  6
Continuous
 62
     7
370
    25
100
AcDbLine
 10
8676.5223611718
 20
5494.2998054143
 30
0.0
 11
8676.5223611718
 21
5494.4491416358
 31
0.0
  0
LINE
  5
10E
330
1F
100
AcDbEntity
  8
0
  6
Continuous
 62
     7
370
    25
100
AcDbLine
 10
8675.5223611718
 20
5493.8791962415
 30
0.0
 11
8675.7085878335
 21
5493.6969832439
 31
0.0
  0
ARC
  5
10F
330
1F
100
AcDbEntity
  8
0
  6
Continuous
 62
     7
370
    25
100
AcDbCircle
 10
8675.5223611718
 20
5495.61128989
 30
0.0
 40
0.5331629282975915
100
AcDbArc
 50
310.7111856769
 51
90.0
  0
LINE
  5
110
330
1F
100
AcDbEntity
  8
0
  6
Continuous
 62
     7
370
    25
100
AcDbLine
 10
8675.7085878335
 20
5493.6969832439
 30
0.0
 11
8675.7085878335
 21
5491.2025664264
 31
0.0
  0
ARC
  5
111
330
1F
100
AcDbEntity
  8
0
  6
Continuous
 62
     7
370
    25
100
AcDbCircle
 10
8676.5223611718
 20
5494.4491416358
 30
0.0
 40
1.0
100
AcDbArc
 50
130.7111856769
 51
180.0
  0
LINE
  5
112
330
1F
100
AcDbEntity
  8
0
  6
Continuous
 62
     7
370
    25
100
AcDbLine
 10
8675.5223611718
 20
5499.2080729558
 30
0.0
 11
8675.5223611718
 21
5496.1444528183
 31
0.0
  0
LINE
  5
113
330
1F
100
AcDbEntity
  8
0
  6
Continuous
 62
     7
370
    25
100
AcDbLine
 10
8676.5223611718
 20
5496.7734381442
 30
0.0
 11
8676.5223611718
 21
5499.1967601651
 31
0.0
  0
ARC
  5
114
330
1F
100
AcDbEntity
  8
0
  6
Continuous
 62
     7
370
    25
100
AcDbCircle
 10
8675.9615384615
 20
5493.8259615385
 30
0.0
 40
5.599999999999883
100
AcDbArc
 50
84.2523695851
 51
94.4980126048
  0
CIRCLE
  5
115
330
1F
100
AcDbEntity
  8
0
  6
Continuous
 62
     7
370
    25
100
AcDbCircle
 10
8675.9615384615
 20
5489.8259615385
 30
0.0
 40
11.0
  0
CIRCLE
  5
116
330
1F
100
AcDbEntity
  8
0
  6
Continuous
 62
     7
370
    25
100
AcDbCircle
 10
8675.9615384615
 20
5489.8259615385
 30
0.0
 40
12.0
  0
LINE
  5
117
330
1F
100
AcDbEntity
  8
0
  6
Continuous
 62
     7
370
    25
100
AcDbLine
 10
8668.3615384615
 20
5729.7259615385
 30
0.0
 11
8608.5615384615
 21
5729.7259615385
 31
0.0
  0
LINE
  5
118
330
1F
100
AcDbEntity
  8
0
  6
Continuous
 62
     7
370
    25
100
AcDbLine
 10
8668.3615384615
 20
5699.9259615385
 30
0.0
 11
8668.3615384615
 21
5729.7259615385
 31
0.0
  0
LINE
  5
119
330
1F
100
AcDbEntity
  8
0
  6
Continuous
 62
     7
370
    25
100
AcDbLine
 10
8608.5615384615
 20
5729.7259615385
 30
0.0
 11
8608.5615384615
 21
5699.9259615385
 31
0.0
  0
LINE
  5
11A
330
1F
100
AcDbEntity
  8
0
  6
Continuous
 62
     7
370
    25
100
AcDbLine
 10
8608.5615384615
 20
5699.9259615385
 30
0.0
 11
8668.3615384615
 21
5699.9259615385
 31
0.0
  0
LINE
  5
11B
330
1F
100
AcDbEntity
  8
0
  6
Continuous
 62
     7
370
    25
100
AcDbLine
 10
8730.0578763116
 20
5589.8469149852
 30
0.0
 11
8718.5258622451
 21
5588.5928609311
 31
0.0
  0
LINE
  5
11C
330
1F
100
AcDbEntity
  8
0
  6
Continuous
 62
     7
370
    25
100
AcDbLine
 10
8717.5528892721
 20
5597.5401132241
 30
0.0
 11
8718.5258622451
 21
5588.5928609311
 31
0.0
  0
LINE
  5
11D
330
1F
100
AcDbEntity
  8
0
  6
Continuous
 62
     7
370
    25
100
AcDbLine
 10
8729.0849033386
 20
5598.7941672781
 30
0.0
 11
8717.5528892721
 21
5597.5401132241
 31
0.0
  0
LINE
  5
11E
330
1F
100
AcDbEntity
  8
0
  6
Continuous
 62
     7
370
    25
100
AcDbLine
 10
8729.0849033386
 20
5598.7941672781
 30
0.0
 11
8730.0578763116
 21
5589.8469149852
 31
0.0
  0
LINE
  5
11F
330
1F
100
AcDbEntity
  8
0
  6
Continuous
 62
     7
370
    25
100
AcDbLine
 10
8716.9042406235
 20
5603.504948086
 30
0.0
 11
8717.5528892721
 21
5597.5401132241
 31
0.0
  0
LINE
  5
120
330
1F
100
AcDbEntity
  8
0
  6
Continuous
 62
     7
370
    25
100
AcDbLine
 10
8728.43625469
 20
5604.7590021401
 30
0.0
 11
8716.9042406235
 21
5603.504948086
 31
0.0
  0
LINE
  5
121
330
1F
100
AcDbEntity
  8
0
  6
Continuous
 62
     7
370
    25
100
AcDbLine
 10
8728.43625469
 20
5604.7590021401
 30
0.0
 11
8729.0849033386
 21
5598.7941672781
 31
0.0
  0
CIRCLE
  5
122
330
1F
100
AcDbEntity
  8
0
  6
Continuous
 62
     7
370
    25
100
AcDbCircle
 10
8723.5051860526
 20
5662.1759615385
 30
0.0
 40
10.10000000000036
  0
ARC
  5
123
330
1F
100
AcDbEntity
  8
0
  6
Continuous
 62
     7
370
    25
100
AcDbCircle
 10
8723.5051860526
 20
5662.1759615385
 30
0.0
 40
12.50000000000135
100
AcDbArc
 50
239.7687137449
 51
120.2312862551
  0
LINE
  5
124
330
1F
100
AcDbEntity
  8
0
  6
Continuous
 62
     7
370
    25
100
AcDbLine
 10
8717.2115384615
 20
5651.3759615385
 30
0.0
 11
8696.2115384615
 21
5651.3759615385
 31
0.0
  0
LINE
  5
125
330
1F
100
AcDbEntity
  8
0
  6
Continuous
 62
     7
370
    25
100
AcDbLine
 10
8696.2115384615
 20
5672.9759615385
 30
0.0
 11
8696.2115384615
 21
5651.3759615385
 31
0.0
  0
LINE
  5
126
330
1F
100
AcDbEntity
  8
0
  6
Continuous
 62
     7
370
    25
100
AcDbLine
 10
8696.2115384615
 20
5672.9759615385
 30
0.0
 11
8717.2115384615
 21
5672.9759615385
 31
0.0
  0
LINE
  5
127
330
1F
100
AcDbEntity
  8
0
  6
Continuous
 62
     7
370
    25
100
AcDbLine
 10
8686.3051860526
 20
5651.3759615385
 30
0.0
 11
8696.2115384615
 21
5651.3759615385
 31
0.0
  0
LINE
  5
128
330
1F
100
AcDbEntity
  8
0
  6
Continuous
 62
     7
370
    25
100
AcDbLine
 10
8686.3051860526
 20
5672.9759615385
 30
0.0
 11
8696.2115384615
 21
5672.9759615385
 31
0.0
  0
LINE
  5
129
330
1F
100
AcDbEntity
  8
0
  6
Continuous
 62
     7
370
    25
100
AcDbLine
 10
8713.9496957453
 20
5693.4500890295
 30
0.0
 11
8708.2496957453
 21
5727.4759615385
 31
0.0
  0
LINE
  5
12A
330
1F
100
AcDbEntity
  8
0
  6
Continuous
 62
     7
370
    25
100
AcDbLine
 10
8723.2115384615
 20
5627.8293801243
 30
0.0
 11
8717.0478757708
 21
5627.159109854
 31
0.0
  0
LINE
  5
12B
330
1F
100
AcDbEntity
  8
0
  6
Continuous
 62
     7
370
    25
100
AcDbLine
 10
8703.6142870268
 20
5726.6994397994
 30
0.0
 11
8708.4469471802
 21
5727.5090050168
 31
0.0
  0
LINE
  5
12C
330
1F
100
AcDbEntity
  8
0
  6
Continuous
 62
     7
370
    25
100
AcDbLine
 10
8714.1469471802
 20
5693.4831325077
 30
0.0
 11
8709.3142870268
 21
5692.6735672904
 31
0.0
  0
LINE
  5
12D
330
1F
100
AcDbEntity
  8
0
  6
Continuous
 62
     7
370
    25
100
AcDbLine
 10
8725.7520790021
 20
5604.4671102482
 30
0.0
 11
8723.2115384615
 21
5627.8293801243
 31
0.0
  0
LINE
  5
12E
330
1F
100
AcDbEntity
  8
0
  6
Continuous
 62
     7
370
    25
100
AcDbLine
 10
8717.0478757708
 20
5627.159109854
 30
0.0
 11
8719.5884163114
 21
5603.7968399779
 31
0.0
  0
LINE
  5
12F
330
1F
100
AcDbEntity
  8
0
  6
Continuous
 62
     7
370
    25
100
AcDbLine
 10
8703.8115384615
 20
5726.7324832776
 30
0.0
 11
8709.5115384615
 21
5692.7066107686
 31
0.0
  0
ARC
  5
130
330
1F
100
AcDbEntity
  8
0
  6
Continuous
 62
     7
370
    25
100
AcDbCircle
 10
8716.7115384615
 20
5709.3759615385
 30
0.0
 40
20.20000000000111
100
AcDbArc
 50
117.1581383017
 51
128.7110110374
  0
LINE
  5
131
330
1F
100
AcDbEntity
  8
0
  6
Continuous
 62
     7
370
    25
100
AcDbLine
 10
8725.7172306607
 20
5604.7875681752
 30
0.0
 11
8719.4806791282
 21
5604.7875681752
 31
0.0
  0
LINE
  5
132
330
1F
100
AcDbEntity
  8
0
  6
Continuous
 62
     7
370
    25
100
AcDbLine
 10
8705.8834421791
 20
5714.3643549014
 30
0.0
 11
8710.4461466317
 21
5714.3643549014
 31
0.0
  0
LINE
  5
133
330
1F
100
AcDbEntity
  8
0
  6
Continuous
 62
     7
370
    25
100
AcDbLine
 10
8709.2472491255
 20
5721.5211151989
 30
0.0
 11
8704.8090918417
 21
5720.777636938
 31
0.0
  0
LINE
  5
134
330
1F
100
AcDbEntity
  8
0
  6
Continuous
 62
     8
370
    25
100
AcDbLine
 10
8743.0510872095
 20
5758.6898507627
 30
0.0
 11
8743.0510872096
 21
5754.8259615386
 31
0.0
  0
LINE
  5
135
330
1F
100
AcDbEntity
  8
0
  6
Continuous
 62
     8
370
    25
100
AcDbLine
 10
8608.8719897137
 20
5754.8259615386
 30
0.0
 11
8608.8719897137
 21
5758.6898507627
 31
0.0
  0
LINE
  5
136
330
1F
100
AcDbEntity
  8
0
  6
Continuous
 62
     8
370
    25
100
AcDbLine
 10
8659.6510872094
 20
5758.6898507627
 30
0.0
 11
8659.6510872094
 21
5754.8259615386
 31
0.0
  0
LINE
  5
137
330
1F
100
AcDbEntity
  8
0
  6
Continuous
 62
     8
370
    25
100
AcDbLine
 10
8692.2719897138
 20
5754.8259615386
 30
0.0
 11
8692.2719897138
 21
5758.6898507627
 31
0.0
  0
ARC
  5
138
330
1F
100
AcDbEntity
  8
0
  6
Continuous
 62
     7
370
    25
100
AcDbCircle
 10
8892.6613550615
 20
5623.3259615384
 30
0.0
 40
2.0
100
AcDbArc
 50
90.0
 51
180.0
  0
ARC
  5
139
330
1F
100
AcDbEntity
  8
0
  6
Continuous
 62
     7
370
    25
100
AcDbCircle
 10
8892.6613550615
 20
5586.3259615384
 30
0.0
 40
2.0
100
AcDbArc
 50
180.0
 51
270.0
  0
ARC
  5
13A
330
1F
100
AcDbEntity
  8
0
  6
Continuous
 62
     7
370
    25
100
AcDbCircle
 10
9004.0613550619
 20
5755.3759615385
 30
0.0
 40
3.400000000001455
100
AcDbArc
 50
0.0
 51
189.3093409226
  0
LINE
  5
13B
330
1F
100
AcDbEntity
  8
0
  6
Continuous
 62
     7
370
    25
100
AcDbLine
 10
9001.3488838639
 20
5753.3259615385
 30
0.0
 11
9001.4920233299
 21
5753.1491848432
 31
0.0
  0
LINE
  5
13C
330
1F
100
AcDbEntity
  8
0
  6
Continuous
 62
     7
370
    25
100
AcDbLine
 10
9006.6306867939
 20
5753.1491848432
 30
0.0
 11
9006.7738262598
 21
5753.3259615385
 31
0.0
  0
LINE
  5
13D
330
1F
100
AcDbEntity
  8
0
  6
Continuous
 62
     7
370
    25
100
AcDbLine
 10
9007.3747423875
 20
5754.6134233884
 30
0.0
 11
9007.4613550619
 21
5755.3759615385
 31
0.0
  0
LINE
  5
13E
330
1F
100
AcDbEntity
  8
0
  6
Continuous
 62
     7
370
    25
100
AcDbLine
 10
9024.7285684667
 20
5645.3268053846
 30
0.0
 11
9024.6613550604
 21
5645.0759615388
 31
0.0
  0
LINE
  5
13F
330
1F
100
AcDbEntity
  8
0
  6
Continuous
 62
     7
370
    25
100
AcDbLine
 10
9024.6613550604
 20
5628.5759615381
 30
0.0
 11
9024.7285684667
 21
5628.3251176923
 31
0.0
  0
ARC
  5
140
330
1F
100
AcDbEntity
  8
0
  6
Continuous
 62
     7
370
    25
100
AcDbCircle
 10
9026.9613550617
 20
5643.6759615384
 30
0.0
 40
1.550000000001091
100
AcDbArc
 50
0.0
 51
91.4807501636
  0
ARC
  5
141
330
1F
100
AcDbEntity
  8
0
  6
Continuous
 62
     7
370
    25
100
AcDbCircle
 10
9026.9613550617
 20
5629.9759615384
 30
0.0
 40
1.549999999999272
100
AcDbArc
 50
268.5192498364
 51
0.0000000001
  0
SPLINE
  5
142
330
1F
100
AcDbEntity
  8
0
  6
Continuous
 62
     7
370
    25
100
AcDbSpline
210
0.0
220
0.0
230
1.0
 70
     8
 71
     3
 72
    11
 73
     7
 74
     0
 42
0.00000001
 43
0.00000001
 40
0.0
 40
0.0
 40
0.0
 40
0.0
 40
0.2959669313784666
 40
0.5610149941505258
 40
0.7956795440823645
 40
1.0
 40
1.0
 40
1.0
 40
1.0
 10
9030.216917492931
 20
5629.976245153463
 30
0.0
 10
9030.408446357122
 20
5629.996369744929
 30
0.0
 10
9030.771495580639
 20
5630.034516565965
 30
0.0
 10
9031.221809148166
 20
5630.302952305338
 30
0.0
 10
9031.538977518045
 20
5630.634999548685
 30
0.0
 10
9031.657871422809
 20
5630.891145656772
 30
0.0
 10
9031.713209205427
 20
5631.010365878165
 30
0.0
  0
SPLINE
  5
143
330
1F
100
AcDbEntity
  8
0
  6
Continuous
 62
     7
370
    25
100
AcDbSpline
210
0.0
220
0.0
230
1.0
 70
     8
 71
     3
 72
    11
 73
     7
 74
     0
 42
0.00000001
 43
0.00000001
 40
0.0
 40
0.0
 40
0.0
 40
0.0
 40
0.2036990632559062
 40
0.4382593188670824
 40
0.7035657476145445
 40
0.9999999999999999
 40
0.9999999999999999
 40
0.9999999999999999
 40
0.9999999999999999
 10
9031.713209205422
 20
5642.639790105844
 30
0.0
 10
9031.657818920776
 20
5642.758864999793
 30
0.0
 10
9031.538646510106
 20
5643.01505509258
 30
0.0
 10
9031.221534349235
 20
5643.34650703739
 30
0.0
 10
9030.771341608355
 20
5643.614652930309
 30
0.0
 10
9030.408428910632
 20
5643.652755827648
 30
0.0
 10
9030.216917492922
 20
5643.672862977202
 30
0.0
  0
LINE
  5
144
330
1F
100
AcDbEntity
  8
0
  6
Continuous
 62
     7
370
    25
100
AcDbLine
 10
9030.2169174929
 20
5643.6759615384
 30
0.0
 11
9028.5113550617
 21
5643.6759615384
 31
0.0
  0
LINE
  5
145
330
1F
100
AcDbEntity
  8
0
  6
Continuous
 62
     7
370
    25
100
AcDbLine
 10
9028.5113550617
 20
5629.9759615384
 30
0.0
 11
9030.2169174929
 21
5629.9759615384
 31
0.0
  0
ARC
  5
146
330
1F
100
AcDbEntity
  8
0
  6
Continuous
 62
     7
370
    25
100
AcDbCircle
 10
9032.4613550617
 20
5642.9259615384
 30
0.0
 40
0.8000000000006318
100
AcDbArc
 50
206.9028660045
 51
270.0
  0
ARC
  5
147
330
1F
100
AcDbEntity
  8
0
  6
Continuous
 62
     7
370
    25
100
AcDbCircle
 10
9032.4613550617
 20
5630.7259615384
 30
0.0
 40
0.8000000000003066
100
AcDbArc
 50
90.0000000001
 51
157.628313984
  0
ARC
  5
148
330
1F
100
AcDbEntity
  8
0
  6
Continuous
 62
     7
370
    25
100
AcDbCircle
 10
9036.3613550617
 20
5640.5259615384
 30
0.0
 40
1.600000000000364
100
AcDbArc
 50
0.0
 51
90.0000000001
  0
ARC
  5
149
330
1F
100
AcDbEntity
  8
0
  6
Continuous
 62
     7
370
    25
100
AcDbCircle
 10
9036.3613550617
 20
5633.1259615384
 30
0.0
 40
1.600000000000364
100
AcDbArc
 50
270.0000000001
 51
0.0
  0
LINE
  5
14A
330
1F
100
AcDbEntity
  8
0
  6
Continuous
 62
     7
370
    25
100
AcDbLine
 10
9036.3613550617
 20
5642.1259615384
 30
0.0
 11
9032.4613550617
 21
5642.1259615384
 31
0.0
  0
LINE
  5
14B
330
1F
100
AcDbEntity
  8
0
  6
Continuous
 62
     7
370
    25
100
AcDbLine
 10
9032.4613550617
 20
5631.5259615384
 30
0.0
 11
9036.3613550617
 21
5631.5259615384
 31
0.0
  0
LINE
  5
14C
330
1F
100
AcDbEntity
  8
0
  6
Continuous
 62
     7
370
    25
100
AcDbLine
 10
9024.728568467
 20
5683.3268053846
 30
0.0
 11
9024.6613550607
 21
5683.0759615388
 31
0.0
  0
LINE
  5
14D
330
1F
100
AcDbEntity
  8
0
  6
Continuous
 62
     7
370
    25
100
AcDbLine
 10
9024.6613550607
 20
5666.5759615381
 30
0.0
 11
9024.7285684671
 21
5666.3251176923
 31
0.0
  0
ARC
  5
14E
330
1F
100
AcDbEntity
  8
0
  6
Continuous
 62
     7
370
    25
100
AcDbCircle
 10
9026.961355062
 20
5681.6759615384
 30
0.0
 40
1.550000000001091
100
AcDbArc
 50
0.0
 51
91.4807501636
  0
ARC
  5
14F
330
1F
100
AcDbEntity
  8
0
  6
Continuous
 62
     7
370
    25
100
AcDbCircle
 10
9026.9613550621
 20
5667.9759615384
 30
0.0
 40
1.550000000001091
100
AcDbArc
 50
268.5192498364
 51
0.0000000001
  0
SPLINE
  5
150
330
1F
100
AcDbEntity
  8
0
  6
Continuous
 62
     7
370
    25
100
AcDbSpline
210
0.0
220
0.0
230
1.0
 70
     8
 71
     3
 72
    11
 73
     7
 74
     0
 42
0.00000001
 43
0.00000001
 40
0.0
 40
0.0
 40
0.0
 40
0.0
 40
0.2959669313784656
 40
0.5610149941505224
 40
0.7956795440823557
 40
1.0
 40
1.0
 40
1.0
 40
1.0
 10
9030.216917493304
 20
5667.97624515346
 30
0.0
 10
9030.408446357495
 20
5667.996369744926
 30
0.0
 10
9030.771495581012
 20
5668.034516565961
 30
0.0
 10
9031.22180914854
 20
5668.302952305335
 30
0.0
 10
9031.538977518418
 20
5668.634999548682
 30
0.0
 10
9031.657871423182
 20
5668.891145656768
 30
0.0
 10
9031.713209205802
 20
5669.010365878163
 30
0.0
  0
SPLINE
  5
151
330
1F
100
AcDbEntity
  8
0
  6
Continuous
 62
     7
370
    25
100
AcDbSpline
210
0.0
220
0.0
230
1.0
 70
     8
 71
     3
 72
    11
 73
     7
 74
     0
 42
0.00000001
 43
0.00000001
 40
0.0
 40
0.0
 40
0.0
 40
0.0
 40
0.2036990632559066
 40
0.4382593188670856
 40
0.7035657476145444
 40
1.0
 40
1.0
 40
1.0
 40
1.0
 10
9031.713209205793
 20
5680.639790105842
 30
0.0
 10
9031.657818921149
 20
5680.75886499979
 30
0.0
 10
9031.538646510478
 20
5681.015055092577
 30
0.0
 10
9031.221534349608
 20
5681.346507037386
 30
0.0
 10
9030.771341608728
 20
5681.614652930305
 30
0.0
 10
9030.408428911005
 20
5681.652755827645
 30
0.0
 10
9030.216917493295
 20
5681.672862977199
 30
0.0
  0
LINE
  5
152
330
1F
100
AcDbEntity
  8
0
  6
Continuous
 62
     7
370
    25
100
AcDbLine
 10
9030.2169174933
 20
5681.6759615384
 30
0.0
 11
9028.511355062
 21
5681.6759615384
 31
0.0
  0
LINE
  5
153
330
1F
100
AcDbEntity
  8
0
  6
Continuous
 62
     7
370
    25
100
AcDbLine
 10
9028.5113550621
 20
5667.9759615384
 30
0.0
 11
9030.2169174933
 21
5667.9759615384
 31
0.0
  0
ARC
  5
154
330
1F
100
AcDbEntity
  8
0
  6
Continuous
 62
     7
370
    25
100
AcDbCircle
 10
9032.461355062
 20
5680.9259615384
 30
0.0
 40
0.8000000000010433
100
AcDbArc
 50
206.9028660045
 51
270.0
  0
ARC
  5
155
330
1F
100
AcDbEntity
  8
0
  6
Continuous
 62
     7
370
    25
100
AcDbCircle
 10
9032.4613550621
 20
5668.7259615384
 30
0.0
 40
0.8000000000003066
100
AcDbArc
 50
90.0000000001
 51
157.628313984
  0
ARC
  5
156
330
1F
100
AcDbEntity
  8
0
  6
Continuous
 62
     7
370
    25
100
AcDbCircle
 10
9036.361355062
 20
5678.5259615384
 30
0.0
 40
1.600000000002183
100
AcDbArc
 50
0.0
 51
90.0
  0
ARC
  5
157
330
1F
100
AcDbEntity
  8
0
  6
Continuous
 62
     7
370
    25
100
AcDbCircle
 10
9036.361355062
 20
5671.1259615384
 30
0.0
 40
1.600000000000364
100
AcDbArc
 50
270.0000000001
 51
0.0
  0
LINE
  5
158
330
1F
100
AcDbEntity
  8
0
  6
Continuous
 62
     7
370
    25
100
AcDbLine
 10
9036.361355062
 20
5680.1259615384
 30
0.0
 11
9032.461355062
 21
5680.1259615384
 31
0.0
  0
LINE
  5
159
330
1F
100
AcDbEntity
  8
0
  6
Continuous
 62
     7
370
    25
100
AcDbLine
 10
9032.461355062
 20
5669.5259615384
 30
0.0
 11
9036.361355062
 21
5669.5259615384
 31
0.0
  0
LINE
  5
15A
330
1F
100
AcDbEntity
  8
0
  6
Continuous
 62
     7
370
    25
100
AcDbLine
 10
9024.7285684671
 20
5664.3268053846
 30
0.0
 11
9024.6613550608
 21
5664.0759615388
 31
0.0
  0
LINE
  5
15B
330
1F
100
AcDbEntity
  8
0
  6
Continuous
 62
     7
370
    25
100
AcDbLine
 10
9024.6613550608
 20
5647.5759615381
 30
0.0
 11
9024.7285684671
 21
5647.3251176923
 31
0.0
  0
ARC
  5
15C
330
1F
100
AcDbEntity
  8
0
  6
Continuous
 62
     7
370
    25
100
AcDbCircle
 10
9026.9613550621
 20
5662.6759615384
 30
0.0
 40
1.55000000000002
100
AcDbArc
 50
0.0
 51
91.4807501637
  0
ARC
  5
15D
330
1F
100
AcDbEntity
  8
0
  6
Continuous
 62
     7
370
    25
100
AcDbCircle
 10
9026.9613550621
 20
5648.9759615384
 30
0.0
 40
1.549999999999272
100
AcDbArc
 50
268.5192498364
 51
0.0000000001
  0
SPLINE
  5
15E
330
1F
100
AcDbEntity
  8
0
  6
Continuous
 62
     7
370
    25
100
AcDbSpline
210
0.0
220
0.0
230
1.0
 70
     8
 71
     3
 72
    11
 73
     7
 74
     0
 42
0.00000001
 43
0.00000001
 40
0.0
 40
0.0
 40
0.0
 40
0.0
 40
0.2959669313784647
 40
0.5610149941505231
 40
0.795679544082359
 40
1.0
 40
1.0
 40
1.0
 40
1.0
 10
9030.216917493337
 20
5648.97624515346
 30
0.0
 10
9030.40844635753
 20
5648.996369744926
 30
0.0
 10
9030.771495581044
 20
5649.034516565961
 30
0.0
 10
9031.221809148572
 20
5649.302952305335
 30
0.0
 10
9031.53897751845
 20
5649.634999548682
 30
0.0
 10
9031.657871423213
 20
5649.891145656768
 30
0.0
 10
9031.713209205833
 20
5650.010365878163
 30
0.0
  0
SPLINE
  5
15F
330
1F
100
AcDbEntity
  8
0
  6
Continuous
 62
     7
370
    25
100
AcDbSpline
210
0.0
220
0.0
230
1.0
 70
     8
 71
     3
 72
    11
 73
     7
 74
     0
 42
0.00000001
 43
0.00000001
 40
0.0
 40
0.0
 40
0.0
 40
0.0
 40
0.2036990632559066
 40
0.4382593188670832
 40
0.7035657476145442
 40
1.0
 40
1.0
 40
1.0
 40
1.0
 10
9031.713209205825
 20
5661.639790105842
 30
0.0
 10
9031.657818921183
 20
5661.75886499979
 30
0.0
 10
9031.538646510511
 20
5662.015055092578
 30
0.0
 10
9031.221534349641
 20
5662.346507037386
 30
0.0
 10
9030.77134160876
 20
5662.614652930306
 30
0.0
 10
9030.40842891104
 20
5662.652755827645
 30
0.0
 10
9030.216917493326
 20
5662.672862977199
 30
0.0
  0
LINE
  5
160
330
1F
100
AcDbEntity
  8
0
  6
Continuous
 62
     7
370
    25
100
AcDbLine
 10
9030.2169174933
 20
5662.6759615384
 30
0.0
 11
9028.5113550621
 21
5662.6759615384
 31
0.0
  0
LINE
  5
161
330
1F
100
AcDbEntity
  8
0
  6
Continuous
 62
     7
370
    25
100
AcDbLine
 10
9028.5113550621
 20
5648.9759615384
 30
0.0
 11
9030.2169174933
 21
5648.9759615384
 31
0.0
  0
ARC
  5
162
330
1F
100
AcDbEntity
  8
0
  6
Continuous
 62
     7
370
    25
100
AcDbCircle
 10
9032.4613550621
 20
5661.9259615384
 30
0.0
 40
0.8000000000006318
100
AcDbArc
 50
206.9028660045
 51
270.0
  0
ARC
  5
163
330
1F
100
AcDbEntity
  8
0
  6
Continuous
 62
     7
370
    25
100
AcDbCircle
 10
9032.4613550621
 20
5649.7259615384
 30
0.0
 40
0.8000000000001819
100
AcDbArc
 50
90.0
 51
157.6283139839
  0
ARC
  5
164
330
1F
100
AcDbEntity
  8
0
  6
Continuous
 62
     7
370
    25
100
AcDbCircle
 10
9036.3613550621
 20
5659.5259615384
 30
0.0
 40
1.600000000000364
100
AcDbArc
 50
0.0
 51
90.0000000001
  0
ARC
  5
165
330
1F
100
AcDbEntity
  8
0
  6
Continuous
 62
     7
370
    25
100
AcDbCircle
 10
9036.3613550621
 20
5652.1259615384
 30
0.0
 40
1.599999999999454
100
AcDbArc
 50
270.0000000001
 51
0.0000000001
  0
LINE
  5
166
330
1F
100
AcDbEntity
  8
0
  6
Continuous
 62
     7
370
    25
100
AcDbLine
 10
9036.3613550621
 20
5661.1259615384
 30
0.0
 11
9032.4613550621
 21
5661.1259615384
 31
0.0
  0
LINE
  5
167
330
1F
100
AcDbEntity
  8
0
  6
Continuous
 62
     7
370
    25
100
AcDbLine
 10
9032.4613550621
 20
5650.5259615384
 30
0.0
 11
9036.3613550621
 21
5650.5259615384
 31
0.0
  0
LINE
  5
168
330
1F
100
AcDbEntity
  8
0
  6
Continuous
 62
     7
370
    25
100
AcDbLine
 10
9024.6613550622
 20
5477.8259615385
 30
0.0
 11
9025.7613550622
 21
5477.8259615385
 31
0.0
  0
LINE
  5
169
330
1F
100
AcDbEntity
  8
0
  6
Continuous
 62
     7
370
    25
100
AcDbLine
 10
9025.7613550622
 20
5501.8259615385
 30
0.0
 11
9024.6613550622
 21
5501.8259615385
 31
0.0
  0
LINE
  5
16A
330
1F
100
AcDbEntity
  8
0
  6
Continuous
 62
     7
370
    25
100
AcDbLine
 10
9025.7613550622
 20
5477.8259615385
 30
0.0
 11
9026.7613550623
 21
5478.8259615385
 31
0.0
  0
LINE
  5
16B
330
1F
100
AcDbEntity
  8
0
  6
Continuous
 62
     7
370
    25
100
AcDbLine
 10
9026.7613550623
 20
5500.8259615385
 30
0.0
 11
9025.7613550622
 21
5501.8259615385
 31
0.0
  0
ARC
  5
16C
330
1F
100
AcDbEntity
  8
0
  6
Continuous
 62
     7
370
    25
100
AcDbCircle
 10
9026.7613550623
 20
5488.4259615385
 30
0.0
 40
0.2000000000007276
100
AcDbArc
 50
270.0
 51
0.0
  0
ARC
  5
16D
330
1F
100
AcDbEntity
  8
0
  6
Continuous
 62
     7
370
    25
100
AcDbCircle
 10
9010.6588550619
 20
5662.1759615385
 30
0.0
 40
26.50250000000272
100
AcDbArc
 50
357.3013800232
 51
16.1010539767
  0
LINE
  5
16E
330
1F
100
AcDbEntity
  8
0
  6
Continuous
 62
     7
370
    25
100
AcDbLine
 10
8890.6613550615
 20
5623.3259615384
 30
0.0
 11
8890.6613550615
 21
5586.3259615384
 31
0.0
  0
LINE
  5
16F
330
1F
100
AcDbEntity
  8
0
  6
Continuous
 62
     7
370
    25
100
AcDbLine
 10
9008.6613550615
 20
5456.5027382338
 30
0.0
 11
9008.6613550615
 21
5456.3259615385
 31
0.0
  0
LINE
  5
170
330
1F
100
AcDbEntity
  8
0
  6
Continuous
 62
     7
370
    25
100
AcDbLine
 10
8997.3869994497
 20
5456.3259615385
 30
0.0
 11
8997.3869994497
 21
5456.5027382336
 31
0.0
  0
ARC
  5
171
330
1F
100
AcDbEntity
  8
0
  6
Continuous
 62
     7
370
    25
100
AcDbCircle
 10
9008.6613550615
 20
5458.8259615385
 30
0.0
 40
2.499999999999091
100
AcDbArc
 50
270.0
 51
280.0
  0
LINE
  5
172
330
1F
100
AcDbEntity
  8
0
  6
Continuous
 62
     7
370
    25
100
AcDbLine
 10
9009.8826271786
 20
5456.5027382338
 30
0.0
 11
9009.0954755056
 21
5456.363942156
 31
0.0
  0
LINE
  5
173
330
1F
100
AcDbEntity
  8
0
  6
Continuous
 62
     7
370
    25
100
AcDbLine
 10
8989.5613550614
 20
5456.3259615385
 30
0.0
 11
8989.5613550614
 21
5456.5027382336
 31
0.0
  0
LINE
  5
174
330
1F
100
AcDbEntity
  8
0
  6
Continuous
 62
     7
370
    25
100
AcDbLine
 10
8895.1613550615
 20
5753.1491848432
 30
0.0
 11
9007.6613550615
 21
5753.1491848432
 31
0.0
  0
LINE
  5
175
330
1F
100
AcDbEntity
  8
0
  6
Continuous
 62
     7
370
    25
100
AcDbLine
 10
9007.6613550615
 20
5456.5027382336
 30
0.0
 11
9007.6613550615
 21
5753.1491848432
 31
0.0
  0
LINE
  5
176
330
1F
100
AcDbEntity
  8
0
  6
Continuous
 62
     7
370
    25
100
AcDbLine
 10
9007.6613550615
 20
5456.5027382336
 30
0.0
 11
8895.1613550615
 21
5456.5027382336
 31
0.0
  0
LINE
  5
177
330
1F
100
AcDbEntity
  8
0
  6
Continuous
 62
     7
370
    25
100
AcDbLine
 10
8895.1613550615
 20
5456.5027382336
 30
0.0
 11
8895.1613550615
 21
5753.1491848432
 31
0.0
  0
ELLIPSE
  5
178
330
1F
100
AcDbEntity
  8
0
  6
Continuous
 62
     7
370
    25
100
AcDbEllipse
 10
8895.1613550615
 20
5752.3259615385
 30
0.0
 11
2.5
 21
0.0
 31
0.0
210
0.0
220
0.0
230
1.0
 40
0.3292893219
 41
1.570796326794897
 42
3.141592653619665
  0
ELLIPSE
  5
179
330
1F
100
AcDbEntity
  8
0
  6
Continuous
 62
     7
370
    25
100
AcDbEllipse
 10
8895.1613550615
 20
5457.3259615384
 30
0.0
 11
2.5
 21
0.0
 31
0.0
210
0.0
220
0.0
230
1.0
 40
0.3292893219
 41
3.1415926535224
 42
4.712388980384694
  0
LINE
  5
17A
330
1F
100
AcDbEntity
  8
0
  6
Continuous
 62
     7
370
    25
100
AcDbLine
 10
8892.6613550615
 20
5457.3259615385
 30
0.0
 11
8892.6613550615
 21
5752.3259615384
 31
0.0
  0
ARC
  5
17B
330
1F
100
AcDbEntity
  8
0
  6
Continuous
 62
     7
370
    25
100
AcDbCircle
 10
8895.1613550615
 20
5752.3259615384
 30
0.0
 40
1.000000000000909
100
AcDbArc
 50
90.0
 51
126.959472798
  0
ARC
  5
17C
330
1F
100
AcDbEntity
  8
0
  6
Continuous
 62
     7
370
    25
100
AcDbCircle
 10
8895.1613550615
 20
5752.3259615384
 30
0.0
 40
2.500000000001819
100
AcDbArc
 50
90.0
 51
180.0
  0
LINE
  5
17D
330
1F
100
AcDbEntity
  8
0
  6
Continuous
 62
     7
370
    25
100
AcDbLine
 10
8895.1613550615
 20
5754.8259615384
 30
0.0
 11
8895.1613550615
 21
5753.3259615384
 31
0.0
  0
LINE
  5
17E
330
1F
100
AcDbEntity
  8
0
  6
Continuous
 62
     7
370
    25
100
AcDbLine
 10
9007.6613550615
 20
5753.3259615385
 30
0.0
 11
8895.1613550615
 21
5753.3259615384
 31
0.0
  0
LINE
  5
17F
330
1F
100
AcDbEntity
  8
0
  6
Continuous
 62
     7
370
    25
100
AcDbLine
 10
9007.2973848272
 20
5754.8259615385
 30
0.0
 11
8895.1613550615
 21
5754.8259615384
 31
0.0
  0
LINE
  5
180
330
1F
100
AcDbEntity
  8
0
  6
Continuous
 62
     7
370
    25
100
AcDbLine
 10
9007.6613550615
 20
5753.8259615385
 30
0.0
 11
9007.2973848272
 21
5754.8259615385
 31
0.0
  0
LINE
  5
181
330
1F
100
AcDbEntity
  8
0
  6
Continuous
 62
     7
370
    25
100
AcDbLine
 10
9007.6613550615
 20
5753.8259615385
 30
0.0
 11
9007.6613550615
 21
5753.3259615385
 31
0.0
  0
ARC
  5
182
330
1F
100
AcDbEntity
  8
0
  6
Continuous
 62
     7
370
    25
100
AcDbCircle
 10
8895.1613550615
 20
5457.3259615384
 30
0.0
 40
1.0
100
AcDbArc
 50
233.0405272072
 51
270.0
  0
LINE
  5
183
330
1F
100
AcDbEntity
  8
0
  6
Continuous
 62
     7
370
    25
100
AcDbLine
 10
8895.1613550615
 20
5454.8259615384
 30
0.0
 11
8895.1613550615
 21
5456.3259615384
 31
0.0
  0
ARC
  5
184
330
1F
100
AcDbEntity
  8
0
  6
Continuous
 62
     7
370
    25
100
AcDbCircle
 10
8895.1613550615
 20
5457.3259615384
 30
0.0
 40
2.500000000001819
100
AcDbArc
 50
179.999999999
 51
270.0
  0
LINE
  5
185
330
1F
100
AcDbEntity
  8
0
  6
Continuous
 62
     7
370
    25
100
AcDbLine
 10
9007.6613550615
 20
5454.8259615384
 30
0.0
 11
9007.6613550615
 21
5456.3259615384
 31
0.0
  0
LINE
  5
186
330
1F
100
AcDbEntity
  8
0
  6
Continuous
 62
     7
370
    25
100
AcDbLine
 10
8895.1613550615
 20
5454.8259615384
 30
0.0
 11
9007.6613550615
 21
5454.8259615384
 31
0.0
  0
LINE
  5
187
330
1F
100
AcDbEntity
  8
0
  6
Continuous
 62
     7
370
    25
100
AcDbLine
 10
8895.1613550615
 20
5456.3259615384
 30
0.0
 11
9007.6613550615
 21
5456.3259615384
 31
0.0
  0
LINE
  5
188
330
1F
100
AcDbEntity
  8
0
  6
Continuous
 62
     7
370
    25
100
AcDbLine
 10
9021.6613550619
 20
5753.3259615385
 30
0.0
 11
9021.6613550619
 21
5753.1491848433
 31
0.0
  0
LINE
  5
189
330
1F
100
AcDbEntity
  8
0
  6
Continuous
 62
     7
370
    25
100
AcDbLine
 10
9001.2326688741
 20
5753.1491848432
 30
0.0
 11
9001.1020477105
 21
5753.3259615385
 31
0.0
  0
ARC
  5
18A
330
1F
100
AcDbEntity
  8
0
  6
Continuous
 62
     7
370
    25
100
AcDbCircle
 10
9004.0613550619
 20
5755.3759615385
 30
0.0
 40
3.600000000000716
100
AcDbArc
 50
342.4135530197
 51
188.7879373236
  0
LINE
  5
18B
330
1F
100
AcDbEntity
  8
0
  6
Continuous
 62
     7
370
    25
100
AcDbLine
 10
9000.4613550619
 20
5753.3259615385
 30
0.0
 11
9000.4613550619
 21
5753.1491848432
 31
0.0
  0
LINE
  5
18C
330
1F
100
AcDbEntity
  8
0
  6
Continuous
 62
     7
370
    25
100
AcDbLine
 10
8986.4613550619
 20
5753.3259615385
 30
0.0
 11
8986.4613550619
 21
5753.1491848432
 31
0.0
  0
LINE
  5
18D
330
1F
100
AcDbEntity
  8
0
  6
Continuous
 62
     7
370
    25
100
AcDbLine
 10
9007.6613550621
 20
5753.1491848433
 30
0.0
 11
9022.1613550621
 21
5753.1491848433
 31
0.0
  0
LINE
  5
18E
330
1F
100
AcDbEntity
  8
0
  6
Continuous
 62
     7
370
    25
100
AcDbLine
 10
9022.1613550621
 20
5753.1491848433
 30
0.0
 11
9022.1613550621
 21
5456.5027382338
 31
0.0
  0
LINE
  5
18F
330
1F
100
AcDbEntity
  8
0
  6
Continuous
 62
     7
370
    25
100
AcDbLine
 10
9022.1613550621
 20
5456.5027382338
 30
0.0
 11
9007.6613550621
 21
5456.5027382338
 31
0.0
  0
ELLIPSE
  5
190
330
1F
100
AcDbEntity
  8
0
  6
Continuous
 62
     7
370
    25
100
AcDbEllipse
 10
9022.1613550621
 20
5457.3259615386
 30
0.0
 11
2.5
 21
0.0
 31
0.0
210
0.0
220
0.0
230
1.0
 40
0.3292893219
 41
4.71238898038615
 42
6.283185307179586
  0
ELLIPSE
  5
191
330
1F
100
AcDbEntity
  8
0
  6
Continuous
 62
     7
370
    25
100
AcDbEllipse
 10
9022.1613550621
 20
5752.3259615386
 30
0.0
 11
2.5
 21
0.0
 31
0.0
210
0.0
220
0.0
230
1.0
 40
0.3292893219
 41
0.0
 42
1.570796326793441
  0
LINE
  5
192
330
1F
100
AcDbEntity
  8
0
  6
Continuous
 62
     7
370
    25
100
AcDbLine
 10
9024.6613550621
 20
5752.3259615386
 30
0.0
 11
9024.6613550621
 21
5457.3259615386
 31
0.0
  0
LINE
  5
193
330
1F
100
AcDbEntity
  8
0
  6
Continuous
 62
     7
370
    25
100
AcDbLine
 10
9007.6613550621
 20
5456.3259615385
 30
0.0
 11
9022.1613550621
 21
5456.3259615386
 31
0.0
  0
LINE
  5
194
330
1F
100
AcDbEntity
  8
0
  6
Continuous
 62
     7
370
    25
100
AcDbLine
 10
9022.1613550621
 20
5454.8259615386
 30
0.0
 11
9022.1613550621
 21
5456.3259615386
 31
0.0
  0
LINE
  5
195
330
1F
100
AcDbEntity
  8
0
  6
Continuous
 62
     7
370
    25
100
AcDbLine
 10
9007.6613550621
 20
5454.8259615385
 30
0.0
 11
9022.1613550621
 21
5454.8259615386
 31
0.0
  0
ARC
  5
196
330
1F
100
AcDbEntity
  8
0
  6
Continuous
 62
     7
370
    25
100
AcDbCircle
 10
9022.1613550621
 20
5457.3259615386
 30
0.0
 40
2.500000000000909
100
AcDbArc
 50
270.0000000001
 51
0.0000000009
  0
ARC
  5
197
330
1F
100
AcDbEntity
  8
0
  6
Continuous
 62
     7
370
    25
100
AcDbCircle
 10
9022.1613550621
 20
5457.3259615386
 30
0.0
 40
1.000000000001356
100
AcDbArc
 50
270.0000000001
 51
306.9594728093
  0
LINE
  5
198
330
1F
100
AcDbEntity
  8
0
  6
Continuous
 62
     7
370
    25
100
AcDbLine
 10
9022.1613550621
 20
5754.8259615386
 30
0.0
 11
9022.1613550621
 21
5753.3259615386
 31
0.0
  0
LINE
  5
199
330
1F
100
AcDbEntity
  8
0
  6
Continuous
 62
     7
370
    25
100
AcDbLine
 10
9022.1613550621
 20
5753.3259615386
 30
0.0
 11
9007.6613550621
 21
5753.3259615386
 31
0.0
  0
LINE
  5
19A
330
1F
100
AcDbEntity
  8
0
  6
Continuous
 62
     7
370
    25
100
AcDbLine
 10
9022.1613550621
 20
5754.8259615386
 30
0.0
 11
9008.2387053313
 21
5754.8259615386
 31
0.0
  0
LINE
  5
19B
330
1F
100
AcDbEntity
  8
0
  6
Continuous
 62
     7
370
    25
100
AcDbLine
 10
9008.2387053313
 20
5754.8259615386
 30
0.0
 11
9007.6613550621
 21
5753.8259615386
 31
0.0
  0
ARC
  5
19C
330
1F
100
AcDbEntity
  8
0
  6
Continuous
 62
     7
370
    25
100
AcDbCircle
 10
9022.1613550621
 20
5752.3259615386
 30
0.0
 40
2.500000000000909
100
AcDbArc
 50
0.0
 51
89.9999999999
  0
ARC
  5
19D
330
1F
100
AcDbEntity
  8
0
  6
Continuous
 62
     7
370
    25
100
AcDbCircle
 10
9022.1613550621
 20
5752.3259615386
 30
0.0
 40
1.000000000001479
100
AcDbArc
 50
53.0405271728
 51
89.9999999999
  0
LINE
  5
19E
330
1F
100
AcDbEntity
  8
0
  6
Continuous
 62
     7
370
    25
100
AcDbLine
 10
9016.6613550622
 20
5454.7259615384
 30
0.0
 11
9009.6613550622
 21
5454.7259615384
 31
0.0
  0
LINE
  5
19F
330
1F
100
AcDbEntity
  8
0
  6
Continuous
 62
     7
370
    25
100
AcDbLine
 10
9009.6613550622
 20
5454.7259615384
 30
0.0
 11
9009.6613550622
 21
5454.8259615384
 31
0.0
  0
LINE
  5
1A0
330
1F
100
AcDbEntity
  8
0
  6
Continuous
 62
     7
370
    25
100
AcDbLine
 10
9016.6613550622
 20
5454.7259615384
 30
0.0
 11
9016.6613550622
 21
5454.8259615384
 31
0.0
  0
LINE
  5
1A1
330
1F
100
AcDbEntity
  8
0
  6
Continuous
 62
     7
370
    25
100
AcDbLine
 10
9026.5420267427
 20
5628.3259615384
 30
0.0
 11
9025.0806833777
 21
5628.3259615385
 31
0.0
  0
SPLINE
  5
1A2
330
1F
100
AcDbEntity
  8
0
  6
Continuous
 62
     7
370
    25
100
AcDbSpline
210
0.0
220
0.0
230
1.0
 70
     8
 71
     3
 72
     9
 73
     5
 74
     0
 42
0.00000001
 43
0.00000001
 40
0.0
 40
0.0
 40
0.0
 40
0.0
 40
0.4952156671610911
 40
1.0
 40
1.0
 40
1.0
 40
1.0
 10
9025.080683377648
 20
5636.82596153843
 30
0.0
 10
9024.90564347415
 20
5635.42295462221
 30
0.0
 10
9024.552181507765
 20
5632.589831582583
 30
0.0
 10
9024.903395870087
 20
5629.756289292808
 30
0.0
 10
9025.080683377655
 20
5628.325961538492
 30
0.0
  0
LINE
  5
1A3
330
1F
100
AcDbEntity
  8
0
  6
Continuous
 62
     7
370
    25
100
AcDbLine
 10
9026.5420267427
 20
5636.8259615582
 30
0.0
 11
9025.0806833776
 21
5636.8259615384
 31
0.0
  0
SPLINE
  5
1A4
330
1F
100
AcDbEntity
  8
0
  6
Continuous
 62
     7
370
    25
100
AcDbSpline
210
0.0
220
0.0
230
1.0
 70
     8
 71
     3
 72
     9
 73
     5
 74
     0
 42
0.00000001
 43
0.00000001
 40
0.0
 40
0.0
 40
0.0
 40
0.0
 40
0.4952156616863512
 40
1.0
 40
1.0
 40
1.0
 40
1.0
 10
9026.54202674274
 20
5636.825961558183
 30
0.0
 10
9026.717066646455
 20
5635.42295465677
 30
0.0
 10
9027.070528617183
 20
5632.589831615721
 30
0.0
 10
9026.719314253118
 20
5629.756289314192
 30
0.0
 10
9026.542026742745
 20
5628.325961538431
 30
0.0
  0
LINE
  5
1A5
330
1F
100
AcDbEntity
  8
0
  6
Continuous
 62
     7
370
    25
100
AcDbLine
 10
9024.7317177433
 20
5645.3259615384
 30
0.0
 11
9025.0806833777
 21
5645.3259615384
 31
0.0
  0
SPLINE
  5
1A6
330
1F
100
AcDbEntity
  8
0
  6
Continuous
 62
     7
370
    25
100
AcDbSpline
210
0.0
220
0.0
230
1.0
 70
     8
 71
     3
 72
     9
 73
     5
 74
     0
 42
0.00000001
 43
0.00000001
 40
0.0
 40
0.0
 40
0.0
 40
0.0
 40
0.4952156671592671
 40
0.9999999999999999
 40
0.9999999999999999
 40
0.9999999999999999
 40
0.9999999999999999
 10
9025.080683377651
 20
5645.325961538367
 30
0.0
 10
9024.905643474149
 20
5643.922954622177
 30
0.0
 10
9024.552181507755
 20
5641.089831582596
 30
0.0
 10
9024.90339587008
 20
5638.256289292774
 30
0.0
 10
9025.080683377648
 20
5636.82596153843
 30
0.0
  0
SPLINE
  5
1A7
330
1F
100
AcDbEntity
  8
0
  6
Continuous
 62
     7
370
    25
100
AcDbSpline
210
0.0
220
0.0
230
1.0
 70
    24
 71
     3
 72
     9
 73
     5
 74
     0
 42
0.00000001
 43
0.00000001
 40
0.0
 40
0.0
 40
0.0
 40
0.0
 40
0.990428144406988
 40
1.0
 40
1.0
 40
1.0
 40
1.0
 10
9025.080683377655
 20
5628.325961538492
 30
0.0
 10
9024.848039243212
 20
5628.32596153845
 30
0.0
 10
9024.613146751757
 20
5628.325961538409
 30
0.0
 10
9024.730593559452
 20
5628.32596153843
 30
0.0
 10
9024.731717743336
 20
5628.32596153843
 30
0.0
  0
LINE
  5
1A8
330
1F
100
AcDbEntity
  8
0
  6
Continuous
 62
     7
370
    25
100
AcDbLine
 10
9028.5113550617
 20
5640.2509615384
 30
0.0
 11
9028.5113550617
 21
5629.9759615384
 31
0.0
  0
LINE
  5
1A9
330
1F
100
AcDbEntity
  8
0
  6
Continuous
 62
     7
370
    25
100
AcDbLine
 10
9028.5113550617
 20
5643.6759615384
 30
0.0
 11
9028.5113550617
 21
5640.2509615384
 31
0.0
  0
LINE
  5
1AA
330
1F
100
AcDbEntity
  8
0
  6
Continuous
 62
     7
370
    25
100
AcDbLine
 10
9025.0806833777
 20
5645.3259615384
 30
0.0
 11
9026.5420267523
 21
5645.3259614965
 31
0.0
  0
SPLINE
  5
1AB
330
1F
100
AcDbEntity
  8
0
  6
Continuous
 62
     7
370
    25
100
AcDbSpline
210
0.0
220
0.0
230
1.0
 70
     8
 71
     3
 72
     9
 73
     5
 74
     0
 42
0.00000001
 43
0.00000001
 40
0.0
 40
0.0
 40
0.0
 40
0.0
 40
0.4952156654701705
 40
1.0
 40
1.0
 40
1.0
 40
1.0
 10
9026.54202675227
 20
5645.325961496547
 30
0.0
 10
9026.717066652944
 20
5643.922954592758
 30
0.0
 10
9027.070528614835
 20
5641.089831568556
 30
0.0
 10
9026.719314251442
 20
5638.256289304371
 30
0.0
 10
9026.54202674274
 20
5636.825961558183
 30
0.0
  0
SPLINE
  5
1AC
330
1F
100
AcDbEntity
  8
0
  6
Continuous
 62
     7
370
    25
100
AcDbSpline
210
0.0
220
0.0
230
1.0
 70
     8
 71
     3
 72
    34
 73
    30
 74
     0
 42
0.00000001
 43
0.00000001
 40
0.0
 40
0.0
 40
0.0
 40
0.0
 40
0.0356463761005746
 40
0.0740221927155821
 40
0.1123833038674135
 40
0.1507248682316735
 40
0.1890420640571529
 40
0.2156066767321555
 40
0.2657712307126234
 40
0.3174212490050882
 40
0.3331895732161803
 40
0.3385532721182855
 40
0.3422358364013336
 40
0.4187639635140808
 40
0.4442758789462625
 40
0.4697633911132217
 40
0.4952228327973161
 40
0.5189585634412293
 40
0.5524960608383354
 40
0.5958454227722596
 40
0.6488386818854978
 40
0.7218575859079367
 40
0.7478228298087428
 40
0.7745794231705261
 40
0.8020727064144377
 40
0.8644846991416965
 40
0.9183692304987366
 40
0.9873296025250345
 40
1.0
 40
1.0
 40
1.0
 40
1.0
 10
9031.712339102658
 20
5641.673332986433
 30
0.0
 10
9031.71221061259
 20
5641.603864625166
 30
0.0
 10
9031.711943793976
 20
5641.45960871509
 30
0.0
 10
9031.712538367687
 20
5641.06813908327
 30
0.0
 10
9031.713276851851
 20
5640.662783715339
 30
0.0
 10
9031.714146031452
 20
5640.210724096986
 30
0.0
 10
9031.715907283908
 20
5639.776993947664
 30
0.0
 10
9031.715579092359
 20
5639.27258019466
 30
0.0
 10
9031.714154452775
 20
5638.682829943469
 30
0.0
 10
9031.712888515924
 20
5638.117567595962
 30
0.0
 10
9031.712183275155
 20
5637.761884766081
 30
0.0
 10
9031.711965954202
 20
5637.640075687593
 30
0.0
 10
9031.711387139241
 20
5637.21929295984
 30
0.0
 10
9031.711556815057
 20
5636.689732360081
 30
0.0
 10
9031.712800246316
 20
5636.059910134124
 30
0.0
 10
9031.713805956691
 20
5635.685551701333
 30
0.0
 10
9031.715465660767
 20
5635.325301166712
 30
0.0
 10
9031.716339827773
 20
5634.932548275871
 30
0.0
 10
9031.715974528008
 20
5634.46530214528
 30
0.0
 10
9031.714943129604
 20
5633.886602326751
 30
0.0
 10
9031.712605245924
 20
5633.181887954955
 30
0.0
 10
9031.711340873797
 20
5632.623469779185
 30
0.0
 10
9031.71132832035
 20
5632.224009591885
 30
0.0
 10
9031.71152138532
 20
5631.990610488373
 30
0.0
 10
9031.712332622801
 20
5631.686363622287
 30
0.0
 10
9031.712652957129
 20
5631.377141411111
 30
0.0
 10
9031.712897716143
 20
5631.1238964718
 30
0.0
 10
9031.713019666406
 20
5630.991816259809
 30
0.0
 10
9031.713060914757
 20
5631.022119633593
 30
0.0
 10
9031.71306731716
 20
5631.026823200557
 30
0.0
  0
SPLINE
  5
1AD
330
1F
100
AcDbEntity
  8
0
  6
Continuous
 62
     7
370
    25
100
AcDbSpline
210
0.0
220
0.0
230
1.0
 70
    24
 71
     3
 72
    18
 73
    14
 74
     0
 42
0.00000001
 43
0.00000001
 40
0.0
 40
0.0
 40
0.0
 40
0.0
 40
0.1436489277838345
 40
0.2209776630721865
 40
0.2999474250715405
 40
0.378917187070894
 40
0.4562459223592459
 40
0.5998948501430681
 40
0.74354377792689
 40
0.8208725132152421
 40
0.8998422752145959
 40
0.9788120372139498
 40
1.0
 40
1.0
 40
1.0
 40
1.0
 10
9037.961355061676
 20
5633.621667544437
 30
0.0
 10
9037.961355061676
 20
5633.897176869777
 30
0.0
 10
9037.961355061676
 20
5634.320997693279
 30
0.0
 10
9037.961355061676
 20
5635.151401984122
 30
0.0
 10
9037.961355061674
 20
5635.860922545382
 30
0.0
 10
9037.961355061674
 20
5636.61458635878
 30
0.0
 10
9037.961355061674
 20
5637.584007790315
 30
0.0
 10
9037.961355061672
 20
5638.721014404591
 30
0.0
 10
9037.961355061672
 20
5639.629304059449
 30
0.0
 10
9037.961355061672
 20
5640.154986953671
 30
0.0
 10
9037.96135506167
 20
5640.417963996366
 30
0.0
 10
9037.96135506167
 20
5640.536180432267
 30
0.0
 10
9037.96135506167
 20
5640.515360228782
 30
0.0
 10
9037.96135506167
 20
5640.510955798693
 30
0.0
  0
LINE
  5
1AE
330
1F
100
AcDbEntity
  8
0
  6
Continuous
 62
     7
370
    25
100
AcDbLine
 10
9026.5420267431
 20
5666.3259615384
 30
0.0
 11
9025.080683378
 21
5666.3259615385
 31
0.0
  0
SPLINE
  5
1AF
330
1F
100
AcDbEntity
  8
0
  6
Continuous
 62
     7
370
    25
100
AcDbSpline
210
0.0
220
0.0
230
1.0
 70
     8
 71
     3
 72
     9
 73
     5
 74
     0
 42
0.00000001
 43
0.00000001
 40
0.0
 40
0.0
 40
0.0
 40
0.0
 40
0.4952156671610916
 40
1.0
 40
1.0
 40
1.0
 40
1.0
 10
9025.080683378023
 20
5674.825961538427
 30
0.0
 10
9024.905643474522
 20
5673.422954622208
 30
0.0
 10
9024.552181508137
 20
5670.58983158258
 30
0.0
 10
9024.90339587046
 20
5667.756289292804
 30
0.0
 10
9025.080683378028
 20
5666.32596153849
 30
0.0
  0
LINE
  5
1B0
330
1F
100
AcDbEntity
  8
0
  6
Continuous
 62
     7
370
    25
100
AcDbLine
 10
9026.5420267431
 20
5674.8259615582
 30
0.0
 11
9025.080683378
 21
5674.8259615384
 31
0.0
  0
SPLINE
  5
1B1
330
1F
100
AcDbEntity
  8
0
  6
Continuous
 62
     7
370
    25
100
AcDbSpline
210
0.0
220
0.0
230
1.0
 70
     8
 71
     3
 72
     9
 73
     5
 74
     0
 42
0.00000001
 43
0.00000001
 40
0.0
 40
0.0
 40
0.0
 40
0.0
 40
0.4952156616863515
 40
1.0
 40
1.0
 40
1.0
 40
1.0
 10
9026.542026743111
 20
5674.825961558179
 30
0.0
 10
9026.717066646828
 20
5673.422954656768
 30
0.0
 10
9027.070528617556
 20
5670.589831615717
 30
0.0
 10
9026.71931425349
 20
5667.756289314189
 30
0.0
 10
9026.542026743118
 20
5666.325961538427
 30
0.0
  0
LINE
  5
1B2
330
1F
100
AcDbEntity
  8
0
  6
Continuous
 62
     7
370
    25
100
AcDbLine
 10
9024.7317177437
 20
5683.3259615384
 30
0.0
 11
9025.080683378
 21
5683.3259615384
 31
0.0
  0
SPLINE
  5
1B3
330
1F
100
AcDbEntity
  8
0
  6
Continuous
 62
     7
370
    25
100
AcDbSpline
210
0.0
220
0.0
230
1.0
 70
     8
 71
     3
 72
     9
 73
     5
 74
     0
 42
0.00000001
 43
0.00000001
 40
0.0
 40
0.0
 40
0.0
 40
0.0
 40
0.4952156671592657
 40
0.9999999999999999
 40
0.9999999999999999
 40
0.9999999999999999
 40
0.9999999999999999
 10
9025.080683378026
 20
5683.325961538363
 30
0.0
 10
9024.905643474522
 20
5681.922954622173
 30
0.0
 10
9024.55218150813
 20
5679.089831582593
 30
0.0
 10
9024.903395870453
 20
5676.256289292771
 30
0.0
 10
9025.080683378023
 20
5674.825961538427
 30
0.0
  0
SPLINE
  5
1B4
330
1F
100
AcDbEntity
  8
0
  6
Continuous
 62
     7
370
    25
100
AcDbSpline
210
0.0
220
0.0
230
1.0
 70
    24
 71
     3
 72
     9
 73
     5
 74
     0
 42
0.00000001
 43
0.00000001
 40
0.0
 40
0.0
 40
0.0
 40
0.0
 40
0.990428144406988
 40
1.0
 40
1.0
 40
1.0
 40
1.0
 10
9025.080683378028
 20
5666.32596153849
 30
0.0
 10
9024.848039243583
 20
5666.325961538448
 30
0.0
 10
9024.61314675213
 20
5666.325961538406
 30
0.0
 10
9024.730593559825
 20
5666.325961538426
 30
0.0
 10
9024.731717743707
 20
5666.325961538427
 30
0.0
  0
LINE
  5
1B5
330
1F
100
AcDbEntity
  8
0
  6
Continuous
 62
     7
370
    25
100
AcDbLine
 10
9028.511355062
 20
5678.2509615384
 30
0.0
 11
9028.5113550621
 21
5667.9759615384
 31
0.0
  0
LINE
  5
1B6
330
1F
100
AcDbEntity
  8
0
  6
Continuous
 62
     7
370
    25
100
AcDbLine
 10
9028.511355062
 20
5681.6759615384
 30
0.0
 11
9028.511355062
 21
5678.2509615384
 31
0.0
  0
LINE
  5
1B7
330
1F
100
AcDbEntity
  8
0
  6
Continuous
 62
     7
370
    25
100
AcDbLine
 10
9025.080683378
 20
5683.3259615384
 30
0.0
 11
9026.5420267526
 21
5683.3259614965
 31
0.0
  0
SPLINE
  5
1B8
330
1F
100
AcDbEntity
  8
0
  6
Continuous
 62
     7
370
    25
100
AcDbSpline
210
0.0
220
0.0
230
1.0
 70
     8
 71
     3
 72
     9
 73
     5
 74
     0
 42
0.00000001
 43
0.00000001
 40
0.0
 40
0.0
 40
0.0
 40
0.0
 40
0.4952156654701713
 40
1.0
 40
1.0
 40
1.0
 40
1.0
 10
9026.542026752642
 20
5683.325961496544
 30
0.0
 10
9026.717066653317
 20
5681.922954592756
 30
0.0
 10
9027.070528615208
 20
5679.089831568553
 30
0.0
 10
9026.719314251815
 20
5676.256289304368
 30
0.0
 10
9026.542026743111
 20
5674.825961558179
 30
0.0
  0
SPLINE
  5
1B9
330
1F
100
AcDbEntity
  8
0
  6
Continuous
 62
     7
370
    25
100
AcDbSpline
210
0.0
220
0.0
230
1.0
 70
     8
 71
     3
 72
    34
 73
    30
 74
     0
 42
0.00000001
 43
0.00000001
 40
0.0
 40
0.0
 40
0.0
 40
0.0
 40
0.0356463761005752
 40
0.0740221927155826
 40
0.1123833038674141
 40
0.150724868231674
 40
0.189042064057153
 40
0.2156066767321564
 40
0.2657712307126234
 40
0.3174212490050886
 40
0.3331895732161806
 40
0.3385532721182858
 40
0.3422358364013344
 40
0.4187639635140816
 40
0.4442758789462628
 40
0.4697633911132224
 40
0.4952228327973164
 40
0.5189585634412296
 40
0.5524960608383357
 40
0.5958454227722597
 40
0.6488386818854979
 40
0.721857585907937
 40
0.7478228298087432
 40
0.7745794231705265
 40
0.8020727064144377
 40
0.8644846991416967
 40
0.9183692304987368
 40
0.9873296025250345
 40
1.0
 40
1.0
 40
1.0
 40
1.0
 10
9031.71233910303
 20
5679.67333298643
 30
0.0
 10
9031.712210612963
 20
5679.603864625163
 30
0.0
 10
9031.71194379435
 20
5679.459608715087
 30
0.0
 10
9031.71253836806
 20
5679.068139083267
 30
0.0
 10
9031.713276852224
 20
5678.662783715336
 30
0.0
 10
9031.714146031825
 20
5678.210724096984
 30
0.0
 10
9031.71590728428
 20
5677.776993947661
 30
0.0
 10
9031.715579092732
 20
5677.272580194656
 30
0.0
 10
9031.714154453148
 20
5676.682829943466
 30
0.0
 10
9031.712888516297
 20
5676.117567595959
 30
0.0
 10
9031.712183275527
 20
5675.761884766077
 30
0.0
 10
9031.711965954575
 20
5675.640075687589
 30
0.0
 10
9031.711387139614
 20
5675.219292959837
 30
0.0
 10
9031.71155681543
 20
5674.689732360077
 30
0.0
 10
9031.712800246687
 20
5674.05991013412
 30
0.0
 10
9031.713805957064
 20
5673.68555170133
 30
0.0
 10
9031.71546566114
 20
5673.325301166708
 30
0.0
 10
9031.716339828146
 20
5672.932548275868
 30
0.0
 10
9031.71597452838
 20
5672.465302145277
 30
0.0
 10
9031.714943129977
 20
5671.886602326747
 30
0.0
 10
9031.712605246299
 20
5671.181887954951
 30
0.0
 10
9031.71134087417
 20
5670.623469779182
 30
0.0
 10
9031.711328320724
 20
5670.224009591882
 30
0.0
 10
9031.711521385694
 20
5669.990610488369
 30
0.0
 10
9031.712332623174
 20
5669.686363622284
 30
0.0
 10
9031.712652957502
 20
5669.377141411108
 30
0.0
 10
9031.712897716516
 20
5669.123896471796
 30
0.0
 10
9031.713019666779
 20
5668.991816259806
 30
0.0
 10
9031.71306091513
 20
5669.022119633591
 30
0.0
 10
9031.713067317532
 20
5669.026823200555
 30
0.0
  0
SPLINE
  5
1BA
330
1F
100
AcDbEntity
  8
0
  6
Continuous
 62
     7
370
    25
100
AcDbSpline
210
0.0
220
0.0
230
1.0
 70
    24
 71
     3
 72
    18
 73
    14
 74
     0
 42
0.00000001
 43
0.00000001
 40
0.0
 40
0.0
 40
0.0
 40
0.0
 40
0.1436489277838348
 40
0.2209776630721865
 40
0.299947425071541
 40
0.3789171870708942
 40
0.4562459223592462
 40
0.5998948501430679
 40
0.7435437779268904
 40
0.8208725132152425
 40
0.8998422752145959
 40
0.9788120372139499
 40
1.0
 40
1.0
 40
1.0
 40
1.0
 10
9037.961355062049
 20
5671.621667544433
 30
0.0
 10
9037.961355062049
 20
5671.897176869775
 30
0.0
 10
9037.961355062049
 20
5672.320997693276
 30
0.0
 10
9037.961355062049
 20
5673.15140198412
 30
0.0
 10
9037.961355062047
 20
5673.860922545379
 30
0.0
 10
9037.961355062047
 20
5674.614586358776
 30
0.0
 10
9037.961355062047
 20
5675.584007790311
 30
0.0
 10
9037.961355062045
 20
5676.721014404588
 30
0.0
 10
9037.961355062045
 20
5677.629304059446
 30
0.0
 10
9037.961355062045
 20
5678.154986953668
 30
0.0
 10
9037.961355062043
 20
5678.417963996362
 30
0.0
 10
9037.961355062043
 20
5678.536180432264
 30
0.0
 10
9037.961355062043
 20
5678.515360228778
 30
0.0
 10
9037.961355062043
 20
5678.51095579869
 30
0.0
  0
LINE
  5
1BB
330
1F
100
AcDbEntity
  8
0
  6
Continuous
 62
     7
370
    25
100
AcDbLine
 10
9026.5420267432
 20
5647.3259615384
 30
0.0
 11
9025.0806833781
 21
5647.3259615385
 31
0.0
  0
SPLINE
  5
1BC
330
1F
100
AcDbEntity
  8
0
  6
Continuous
 62
     7
370
    25
100
AcDbSpline
210
0.0
220
0.0
230
1.0
 70
     8
 71
     3
 72
     9
 73
     5
 74
     0
 42
0.00000001
 43
0.00000001
 40
0.0
 40
0.0
 40
0.0
 40
0.0
 40
0.4952156671610911
 40
1.0
 40
1.0
 40
1.0
 40
1.0
 10
9025.080683378053
 20
5655.825961538427
 30
0.0
 10
9024.905643474556
 20
5654.422954622208
 30
0.0
 10
9024.55218150817
 20
5651.589831582579
 30
0.0
 10
9024.903395870493
 20
5648.756289292804
 30
0.0
 10
9025.08068337806
 20
5647.32596153849
 30
0.0
  0
LINE
  5
1BD
330
1F
100
AcDbEntity
  8
0
  6
Continuous
 62
     7
370
    25
100
AcDbLine
 10
9026.5420267431
 20
5655.8259615582
 30
0.0
 11
9025.0806833781
 21
5655.8259615384
 31
0.0
  0
SPLINE
  5
1BE
330
1F
100
AcDbEntity
  8
0
  6
Continuous
 62
     7
370
    25
100
AcDbSpline
210
0.0
220
0.0
230
1.0
 70
     8
 71
     3
 72
     9
 73
     5
 74
     0
 42
0.00000001
 43
0.00000001
 40
0.0
 40
0.0
 40
0.0
 40
0.0
 40
0.4952156616863512
 40
1.0
 40
1.0
 40
1.0
 40
1.0
 10
9026.542026743145
 20
5655.825961558179
 30
0.0
 10
9026.717066646861
 20
5654.422954656768
 30
0.0
 10
9027.070528617589
 20
5651.589831615718
 30
0.0
 10
9026.719314253523
 20
5648.756289314189
 30
0.0
 10
9026.542026743153
 20
5647.325961538428
 30
0.0
  0
LINE
  5
1BF
330
1F
100
AcDbEntity
  8
0
  6
Continuous
 62
     7
370
    25
100
AcDbLine
 10
9024.7317177437
 20
5664.3259615384
 30
0.0
 11
9025.0806833781
 21
5664.3259615384
 31
0.0
  0
SPLINE
  5
1C0
330
1F
100
AcDbEntity
  8
0
  6
Continuous
 62
     7
370
    25
100
AcDbSpline
210
0.0
220
0.0
230
1.0
 70
     8
 71
     3
 72
     9
 73
     5
 74
     0
 42
0.00000001
 43
0.00000001
 40
0.0
 40
0.0
 40
0.0
 40
0.0
 40
0.4952156671592668
 40
0.9999999999999999
 40
0.9999999999999999
 40
0.9999999999999999
 40
0.9999999999999999
 10
9025.080683378057
 20
5664.325961538363
 30
0.0
 10
9024.905643474556
 20
5662.922954622173
 30
0.0
 10
9024.552181508163
 20
5660.089831582593
 30
0.0
 10
9024.903395870486
 20
5657.256289292771
 30
0.0
 10
9025.080683378053
 20
5655.825961538427
 30
0.0
  0
SPLINE
  5
1C1
330
1F
100
AcDbEntity
  8
0
  6
Continuous
 62
     7
370
    25
100
AcDbSpline
210
0.0
220
0.0
230
1.0
 70
    24
 71
     3
 72
     9
 73
     5
 74
     0
 42
0.00000001
 43
0.00000001
 40
0.0
 40
0.0
 40
0.0
 40
0.0
 40
0.990428144406988
 40
1.0
 40
1.0
 40
1.0
 40
1.0
 10
9025.08068337806
 20
5647.32596153849
 30
0.0
 10
9024.848039243618
 20
5647.325961538448
 30
0.0
 10
9024.613146752165
 20
5647.325961538406
 30
0.0
 10
9024.730593559858
 20
5647.325961538427
 30
0.0
 10
9024.731717743742
 20
5647.325961538427
 30
0.0
  0
LINE
  5
1C2
330
1F
100
AcDbEntity
  8
0
  6
Continuous
 62
     7
370
    25
100
AcDbLine
 10
9028.5113550621
 20
5659.2509615384
 30
0.0
 11
9028.5113550621
 21
5648.9759615384
 31
0.0
  0
LINE
  5
1C3
330
1F
100
AcDbEntity
  8
0
  6
Continuous
 62
     7
370
    25
100
AcDbLine
 10
9028.5113550621
 20
5662.6759615384
 30
0.0
 11
9028.5113550621
 21
5659.2509615384
 31
0.0
  0
LINE
  5
1C4
330
1F
100
AcDbEntity
  8
0
  6
Continuous
 62
     7
370
    25
100
AcDbLine
 10
9025.0806833781
 20
5664.3259615384
 30
0.0
 11
9026.5420267527
 21
5664.3259614965
 31
0.0
  0
SPLINE
  5
1C5
330
1F
100
AcDbEntity
  8
0
  6
Continuous
 62
     7
370
    25
100
AcDbSpline
210
0.0
220
0.0
230
1.0
 70
     8
 71
     3
 72
     9
 73
     5
 74
     0
 42
0.00000001
 43
0.00000001
 40
0.0
 40
0.0
 40
0.0
 40
0.0
 40
0.4952156654701703
 40
1.0
 40
1.0
 40
1.0
 40
1.0
 10
9026.542026752673
 20
5664.325961496544
 30
0.0
 10
9026.717066653351
 20
5662.922954592755
 30
0.0
 10
9027.070528615242
 20
5660.089831568553
 30
0.0
 10
9026.719314251848
 20
5657.256289304369
 30
0.0
 10
9026.542026743145
 20
5655.825961558179
 30
0.0
  0
SPLINE
  5
1C6
330
1F
100
AcDbEntity
  8
0
  6
Continuous
 62
     7
370
    25
100
AcDbSpline
210
0.0
220
0.0
230
1.0
 70
     8
 71
     3
 72
    34
 73
    30
 74
     0
 42
0.00000001
 43
0.00000001
 40
0.0
 40
0.0
 40
0.0
 40
0.0
 40
0.0356463761005746
 40
0.0740221927155821
 40
0.1123833038674135
 40
0.1507248682316735
 40
0.1890420640571525
 40
0.2156066767321555
 40
0.2657712307126234
 40
0.3174212490050882
 40
0.3331895732161803
 40
0.3385532721182855
 40
0.3422358364013336
 40
0.4187639635140808
 40
0.4442758789462625
 40
0.4697633911132217
 40
0.4952228327973161
 40
0.5189585634412293
 40
0.5524960608383354
 40
0.5958454227722594
 40
0.6488386818854976
 40
0.7218575859079368
 40
0.7478228298087429
 40
0.7745794231705261
 40
0.8020727064144377
 40
0.8644846991416965
 40
0.9183692304987366
 40
0.9873296025250345
 40
0.9999999999999999
 40
0.9999999999999999
 40
0.9999999999999999
 40
0.9999999999999999
 10
9031.712339103062
 20
5660.673332986429
 30
0.0
 10
9031.712210612994
 20
5660.603864625163
 30
0.0
 10
9031.71194379438
 20
5660.459608715087
 30
0.0
 10
9031.712538368092
 20
5660.068139083267
 30
0.0
 10
9031.713276852257
 20
5659.662783715336
 30
0.0
 10
9031.714146031858
 20
5659.210724096984
 30
0.0
 10
9031.715907284311
 20
5658.77699394766
 30
0.0
 10
9031.715579092763
 20
5658.272580194656
 30
0.0
 10
9031.71415445318
 20
5657.682829943466
 30
0.0
 10
9031.712888516327
 20
5657.117567595959
 30
0.0
 10
9031.712183275558
 20
5656.761884766077
 30
0.0
 10
9031.711965954608
 20
5656.640075687589
 30
0.0
 10
9031.711387139647
 20
5656.219292959837
 30
0.0
 10
9031.71155681546
 20
5655.689732360077
 30
0.0
 10
9031.712800246722
 20
5655.05991013412
 30
0.0
 10
9031.713805957097
 20
5654.68555170133
 30
0.0
 10
9031.715465661173
 20
5654.325301166708
 30
0.0
 10
9031.71633982818
 20
5653.932548275868
 30
0.0
 10
9031.715974528412
 20
5653.465302145278
 30
0.0
 10
9031.71494313001
 20
5652.886602326747
 30
0.0
 10
9031.71260524633
 20
5652.181887954951
 30
0.0
 10
9031.7113408742
 20
5651.623469779182
 30
0.0
 10
9031.711328320755
 20
5651.224009591882
 30
0.0
 10
9031.711521385725
 20
5650.990610488369
 30
0.0
 10
9031.712332623207
 20
5650.686363622283
 30
0.0
 10
9031.712652957534
 20
5650.377141411108
 30
0.0
 10
9031.712897716547
 20
5650.123896471796
 30
0.0
 10
9031.71301966681
 20
5649.991816259805
 30
0.0
 10
9031.713060915163
 20
5650.02211963359
 30
0.0
 10
9031.713067317565
 20
5650.026823200555
 30
0.0
  0
SPLINE
  5
1C7
330
1F
100
AcDbEntity
  8
0
  6
Continuous
 62
     7
370
    25
100
AcDbSpline
210
0.0
220
0.0
230
1.0
 70
    24
 71
     3
 72
    18
 73
    14
 74
     0
 42
0.00000001
 43
0.00000001
 40
0.0
 40
0.0
 40
0.0
 40
0.0
 40
0.1436489277838342
 40
0.2209776630721863
 40
0.2999474250715403
 40
0.3789171870708941
 40
0.456245922359246
 40
0.5998948501430675
 40
0.7435437779268901
 40
0.8208725132152421
 40
0.8998422752145959
 40
0.9788120372139498
 40
1.0
 40
1.0
 40
1.0
 40
1.0
 10
9037.96135506208
 20
5652.621667544434
 30
0.0
 10
9037.96135506208
 20
5652.897176869774
 30
0.0
 10
9037.96135506208
 20
5653.320997693276
 30
0.0
 10
9037.96135506208
 20
5654.15140198412
 30
0.0
 10
9037.96135506208
 20
5654.86092254538
 30
0.0
 10
9037.961355062078
 20
5655.614586358776
 30
0.0
 10
9037.961355062078
 20
5656.584007790311
 30
0.0
 10
9037.961355062076
 20
5657.721014404588
 30
0.0
 10
9037.961355062076
 20
5658.629304059446
 30
0.0
 10
9037.961355062076
 20
5659.154986953669
 30
0.0
 10
9037.961355062076
 20
5659.417963996362
 30
0.0
 10
9037.961355062076
 20
5659.536180432264
 30
0.0
 10
9037.961355062076
 20
5659.515360228778
 30
0.0
 10
9037.961355062076
 20
5659.51095579869
 30
0.0
  0
LINE
  5
1C8
330
1F
100
AcDbEntity
  8
0
  6
Continuous
 62
     7
370
    25
100
AcDbLine
 10
9025.7613550622
 20
5477.8259615385
 30
0.0
 11
9025.7613550622
 21
5501.8259615385
 31
0.0
  0
LINE
  5
1C9
330
1F
100
AcDbEntity
  8
0
  6
Continuous
 62
     7
370
    25
100
AcDbLine
 10
9026.7613550623
 20
5500.8259615385
 30
0.0
 11
9026.7613550623
 21
5478.8259615385
 31
0.0
  0
SPLINE
  5
1CA
330
1F
100
AcDbEntity
  8
0
  6
Continuous
 62
     7
370
    25
100
AcDbSpline
210
0.0
220
0.0
230
1.0
 70
     8
 71
     3
 72
    13
 73
     9
 74
     0
 42
0.00000001
 43
0.00000001
 40
0.0
 40
0.0
 40
0.0
 40
0.0
 40
0.0254342784919342
 40
0.2391405405228668
 40
0.4528843033372799
 40
0.6670512278740933
 40
0.8818628295038904
 40
1.0
 40
1.0
 40
1.0
 40
1.0
 10
9026.76135506225
 20
5499.408713844327
 30
0.0
 10
9026.76401107741
 20
5499.408679832044
 30
0.0
 10
9026.788983710356
 20
5499.408360038584
 30
0.0
 10
9026.836271544067
 20
5499.398171442072
 30
0.0
 10
9026.894654611666
 20
5499.362787189023
 30
0.0
 10
9026.937884025378
 20
5499.309966432117
 30
0.0
 10
9026.958749942236
 20
5499.255227256302
 30
0.0
 10
9026.960672794243
 20
5499.220422433164
 30
0.0
 10
9026.96135506225
 20
5499.208072955799
 30
0.0
  0
LINE
  5
1CB
330
1F
100
AcDbEntity
  8
0
  6
Continuous
 62
     7
370
    25
100
AcDbLine
 10
9026.9613550623
 20
5499.2080729558
 30
0.0
 11
9026.9613550623
 21
5488.4259615385
 31
0.0
  0
LINE
  5
1CC
330
1F
100
AcDbEntity
  8
0
  6
Continuous
 62
     7
370
    25
100
AcDbLine
 10
9029.1613550619
 20
5667.9759615384
 30
0.0
 11
9029.1613550619
 21
5662.6759615384
 31
0.0
  0
LINE
  5
1CD
330
1F
100
AcDbEntity
  8
0
  6
Continuous
 62
     7
370
    25
100
AcDbLine
 10
9035.1613550619
 20
5669.5259615384
 30
0.0
 11
9035.1613550619
 21
5661.1259615384
 31
0.0
  0
LINE
  5
1CE
330
1F
100
AcDbEntity
  8
0
  6
Continuous
 62
     7
370
    25
100
AcDbLine
 10
9037.6087013385
 20
5604.4671102482
 30
0.0
 11
9037.6087013385
 21
5603.7968399779
 31
0.0
  0
LINE
  5
1CF
330
1F
100
AcDbEntity
  8
0
  6
Continuous
 62
     7
370
    25
100
AcDbLine
 10
9024.6613550621
 20
5604.4671102482
 30
0.0
 11
9037.6087013385
 21
5604.4671102482
 31
0.0
  0
LINE
  5
1D0
330
1F
100
AcDbEntity
  8
0
  6
Continuous
 62
     7
370
    25
100
AcDbLine
 10
9024.6613550621
 20
5604.7590021401
 30
0.0
 11
9039.1087013385
 21
5604.7590021401
 31
0.0
  0
LINE
  5
1D1
330
1F
100
AcDbEntity
  8
0
  6
Continuous
 62
     7
370
    25
100
AcDbLine
 10
9039.1087013385
 20
5604.7590021401
 30
0.0
 11
9039.1087013385
 21
5603.504948086
 31
0.0
  0
LINE
  5
1D2
330
1F
100
AcDbEntity
  8
0
  6
Continuous
 62
     7
370
    25
100
AcDbLine
 10
9024.6613550621
 20
5603.504948086
 30
0.0
 11
9039.1087013385
 21
5603.504948086
 31
0.0
  0
LINE
  5
1D3
330
1F
100
AcDbEntity
  8
0
  6
Continuous
 62
     7
370
    25
100
AcDbLine
 10
9024.6613550621
 20
5603.7968399779
 30
0.0
 11
9037.6087013385
 21
5603.7968399779
 31
0.0
  0
LINE
  5
1D4
330
1F
100
AcDbEntity
  8
0
  6
Continuous
 62
     7
370
    25
100
AcDbLine
 10
9039.1087013385
 20
5603.504948086
 30
0.0
 11
9039.1087013385
 21
5597.5401132241
 31
0.0
  0
ARC
  5
1D5
330
1F
100
AcDbEntity
  8
0
  6
Continuous
 62
     7
370
    25
100
AcDbCircle
 10
9030.1339174948
 20
5597.5676515999
 30
0.0
 40
8.974826093185593
100
AcDbArc
 50
269.8390184703
 51
359.8241932302
  0
LINE
  5
1D6
330
1F
100
AcDbEntity
  8
0
  6
Continuous
 62
     7
370
    25
100
AcDbLine
 10
9030.1087013385
 20
5588.5928609311
 30
0.0
 11
9024.6613550621
 21
5588.5928609311
 31
0.0
  0
LINE
  5
1D7
330
1F
100
AcDbEntity
  8
0
  6
Continuous
 62
     7
370
    25
100
AcDbLine
 10
8904.1613550615
 20
5456.5027382337
 30
0.0
 11
8904.1613550615
 21
5456.3259615384
 31
0.0
  0
LINE
  5
1D8
330
1F
100
AcDbEntity
  8
0
  6
Continuous
 62
     7
370
    25
100
AcDbLine
 10
8984.1613550615
 20
5456.5027382337
 30
0.0
 11
8984.1613550615
 21
5456.3259615384
 31
0.0
  0
LINE
  5
1D9
330
1F
100
AcDbEntity
  8
0
  6
Continuous
 62
     8
370
    25
100
AcDbLine
 10
9009.0710020123
 20
5456.5027382338
 30
0.0
 11
9009.0954755056
 21
5456.363942156
 31
0.0
  0
LINE
  5
1DA
330
1F
100
AcDbEntity
  8
0
  6
Continuous
 62
     8
370
    25
100
AcDbLine
 10
8993.5613550614
 20
5456.5027382336
 30
0.0
 11
8993.5613550614
 21
5456.3259615385
 31
0.0
  0
ARC
  5
1DB
330
1F
100
AcDbEntity
  8
0
  6
Continuous
 62
     8
370
    25
100
AcDbCircle
 10
9004.0613550619
 20
5755.3759615385
 30
0.0
 40
3.313889224153172
100
AcDbArc
 50
0.0
 51
189.5534797612
  0
LINE
  5
1DC
330
1F
100
AcDbEntity
  8
0
  6
Continuous
 62
     8
370
    25
100
AcDbLine
 10
9001.4576343031
 20
5753.3259615385
 30
0.0
 11
9001.6071082652
 21
5753.1491848432
 31
0.0
  0
LINE
  5
1DD
330
1F
100
AcDbEntity
  8
0
  6
Continuous
 62
     8
370
    25
100
AcDbLine
 10
9006.5156018586
 20
5753.1491848432
 30
0.0
 11
9006.6650758207
 21
5753.3259615385
 31
0.0
  0
LINE
  5
1DE
330
1F
100
AcDbEntity
  8
0
  6
Continuous
 62
     8
370
    25
100
AcDbLine
 10
9007.3188234179
 20
5754.7670594946
 30
0.0
 11
9007.375244286
 21
5755.3759615385
 31
0.0
  0
SPLINE
  5
1DF
330
1F
100
AcDbEntity
  8
0
  6
Continuous
 62
     8
370
    25
100
AcDbSpline
210
0.0
220
0.0
230
1.0
 70
     8
 71
     3
 72
     9
 73
     5
 74
     0
 42
0.00000001
 43
0.00000001
 40
0.0
 40
0.0
 40
0.0
 40
0.0
 40
0.4749782758328485
 40
1.0
 40
1.0
 40
1.0
 40
1.0
 10
9031.713373748174
 20
5642.547010348892
 30
0.0
 10
9031.71331669868
 20
5642.559489979263
 30
0.0
 10
9031.713196588991
 20
5642.585764086954
 30
0.0
 10
9031.712634310881
 20
5641.987457134298
 30
0.0
 10
9031.712339102658
 20
5641.673332986433
 30
0.0
  0
SPLINE
  5
1E0
330
1F
100
AcDbEntity
  8
0
  6
Continuous
 62
     8
370
    25
100
AcDbSpline
210
0.0
220
0.0
230
1.0
 70
    24
 71
     3
 72
    24
 73
    20
 74
     0
 42
0.00000001
 43
0.00000001
 40
0.0
 40
0.0
 40
0.0
 40
0.0
 40
0.0211310350232564
 40
0.0835990888596311
 40
0.1460671426960055
 40
0.20853519653238
 40
0.2710032503687544
 40
0.3334713042051289
 40
0.3959393580415032
 40
0.4584074118778775
 40
0.520875465714252
 40
0.5833435195506266
 40
0.6458115733870011
 40
0.7082796272233753
 40
0.7707476810597498
 40
0.8332157348961243
 40
0.895683788732499
 40
0.9581518425688734
 40
1.0
 40
1.0
 40
1.0
 40
1.0
 10
9030.216917492922
 20
5643.646432845986
 30
0.0
 10
9030.216917492922
 20
5643.654684290504
 30
0.0
 10
9030.216917492922
 20
5643.687328845903
 30
0.0
 10
9030.216917492922
 20
5643.47384771934
 30
0.0
 10
9030.216917492922
 20
5643.012185755475
 30
0.0
 10
9030.216917492922
 20
5642.294648118412
 30
0.0
 10
9030.216917492924
 20
5641.371813221457
 30
0.0
 10
9030.216917492924
 20
5640.272981145472
 30
0.0
 10
9030.216917492926
 20
5639.042031333375
 30
0.0
 10
9030.216917492926
 20
5637.725824672939
 30
0.0
 10
9030.216917492928
 20
5636.375065598241
 30
0.0
 10
9030.216917492928
 20
5635.041613445165
 30
0.0
 10
9030.21691749293
 20
5633.776786993276
 30
0.0
 10
9030.21691749293
 20
5632.628942547106
 30
0.0
 10
9030.216917492931
 20
5631.643117230642
 30
0.0
 10
9030.216917492931
 20
5630.853741602069
 30
0.0
 10
9030.216917492931
 20
5630.304041441942
 30
0.0
 10
9030.216917492931
 20
5630.004114157157
 30
0.0
 10
9030.216917492931
 20
5630.004839673539
 30
0.0
 10
9030.216917492931
 20
5630.005130726324
 30
0.0
  0
LINE
  5
1E1
330
1F
100
AcDbEntity
  8
0
  6
Continuous
 62
     8
370
    25
100
AcDbLine
 10
9032.4613550617
 20
5632.2360268984
 30
0.0
 11
9032.4613550617
 21
5631.5259615384
 31
0.0
  0
LINE
  5
1E2
330
1F
100
AcDbEntity
  8
0
  6
Continuous
 62
     8
370
    25
100
AcDbLine
 10
9032.4613550617
 20
5642.1259615384
 30
0.0
 11
9032.4613550617
 21
5632.2360268984
 31
0.0
  0
LINE
  5
1E3
330
1F
100
AcDbEntity
  8
0
  6
Continuous
 62
     8
370
    25
100
AcDbLine
 10
9036.3613550617
 20
5632.2360268984
 30
0.0
 11
9036.3613550617
 21
5642.1259615384
 31
0.0
  0
LINE
  5
1E4
330
1F
100
AcDbEntity
  8
0
  6
Continuous
 62
     8
370
    25
100
AcDbLine
 10
9036.3613550617
 20
5631.5259615384
 30
0.0
 11
9036.3613550617
 21
5632.2360268984
 31
0.0
  0
SPLINE
  5
1E5
330
1F
100
AcDbEntity
  8
0
  6
Continuous
 62
     8
370
    25
100
AcDbSpline
210
0.0
220
0.0
230
1.0
 70
     8
 71
     3
 72
     9
 73
     5
 74
     0
 42
0.00000001
 43
0.00000001
 40
0.0
 40
0.0
 40
0.0
 40
0.0
 40
0.4749782758328499
 40
1.0
 40
1.0
 40
1.0
 40
1.0
 10
9031.713373748547
 20
5680.54701034889
 30
0.0
 10
9031.713316699053
 20
5680.55948997926
 30
0.0
 10
9031.713196589366
 20
5680.58576408695
 30
0.0
 10
9031.712634311252
 20
5679.987457134293
 30
0.0
 10
9031.71233910303
 20
5679.67333298643
 30
0.0
  0
SPLINE
  5
1E6
330
1F
100
AcDbEntity
  8
0
  6
Continuous
 62
     8
370
    25
100
AcDbSpline
210
0.0
220
0.0
230
1.0
 70
    24
 71
     3
 72
    24
 73
    20
 74
     0
 42
0.00000001
 43
0.00000001
 40
0.0
 40
0.0
 40
0.0
 40
0.0
 40
0.0211310350232564
 40
0.0835990888596308
 40
0.1460671426960053
 40
0.2085351965323798
 40
0.2710032503687539
 40
0.3334713042051284
 40
0.3959393580415033
 40
0.4584074118778775
 40
0.5208754657142518
 40
0.5833435195506264
 40
0.6458115733870011
 40
0.7082796272233751
 40
0.7707476810597496
 40
0.8332157348961242
 40
0.8956837887324989
 40
0.9581518425688733
 40
0.9999999999999999
 40
0.9999999999999999
 40
0.9999999999999999
 40
0.9999999999999999
 10
9030.216917493295
 20
5681.646432845982
 30
0.0
 10
9030.216917493295
 20
5681.654684290501
 30
0.0
 10
9030.216917493295
 20
5681.687328845898
 30
0.0
 10
9030.216917493295
 20
5681.473847719336
 30
0.0
 10
9030.216917493295
 20
5681.012185755471
 30
0.0
 10
9030.216917493295
 20
5680.294648118409
 30
0.0
 10
9030.216917493297
 20
5679.371813221454
 30
0.0
 10
9030.216917493297
 20
5678.272981145468
 30
0.0
 10
9030.216917493299
 20
5677.042031333372
 30
0.0
 10
9030.216917493299
 20
5675.725824672935
 30
0.0
 10
9030.2169174933
 20
5674.375065598239
 30
0.0
 10
9030.2169174933
 20
5673.041613445162
 30
0.0
 10
9030.216917493302
 20
5671.776786993272
 30
0.0
 10
9030.216917493302
 20
5670.628942547102
 30
0.0
 10
9030.216917493304
 20
5669.643117230638
 30
0.0
 10
9030.216917493304
 20
5668.853741602065
 30
0.0
 10
9030.216917493304
 20
5668.304041441938
 30
0.0
 10
9030.216917493304
 20
5668.004114157154
 30
0.0
 10
9030.216917493304
 20
5668.004839673536
 30
0.0
 10
9030.216917493304
 20
5668.00513072632
 30
0.0
  0
LINE
  5
1E7
330
1F
100
AcDbEntity
  8
0
  6
Continuous
 62
     8
370
    25
100
AcDbLine
 10
9032.461355062
 20
5670.2360268984
 30
0.0
 11
9032.461355062
 21
5669.5259615384
 31
0.0
  0
LINE
  5
1E8
330
1F
100
AcDbEntity
  8
0
  6
Continuous
 62
     8
370
    25
100
AcDbLine
 10
9032.461355062
 20
5680.1259615384
 30
0.0
 11
9032.461355062
 21
5670.2360268984
 31
0.0
  0
LINE
  5
1E9
330
1F
100
AcDbEntity
  8
0
  6
Continuous
 62
     8
370
    25
100
AcDbLine
 10
9036.361355062
 20
5670.2360268984
 30
0.0
 11
9036.361355062
 21
5680.1259615384
 31
0.0
  0
LINE
  5
1EA
330
1F
100
AcDbEntity
  8
0
  6
Continuous
 62
     8
370
    25
100
AcDbLine
 10
9036.3613550621
 20
5669.5259615384
 30
0.0
 11
9036.361355062
 21
5670.2360268984
 31
0.0
  0
SPLINE
  5
1EB
330
1F
100
AcDbEntity
  8
0
  6
Continuous
 62
     8
370
    25
100
AcDbSpline
210
0.0
220
0.0
230
1.0
 70
     8
 71
     3
 72
     9
 73
     5
 74
     0
 42
0.00000001
 43
0.00000001
 40
0.0
 40
0.0
 40
0.0
 40
0.0
 40
0.4749782758328486
 40
1.0
 40
1.0
 40
1.0
 40
1.0
 10
9031.713373748578
 20
5661.54701034889
 30
0.0
 10
9031.713316699086
 20
5661.55948997926
 30
0.0
 10
9031.713196589397
 20
5661.58576408695
 30
0.0
 10
9031.712634311287
 20
5660.987457134294
 30
0.0
 10
9031.712339103062
 20
5660.673332986429
 30
0.0
  0
SPLINE
  5
1EC
330
1F
100
AcDbEntity
  8
0
  6
Continuous
 62
     8
370
    25
100
AcDbSpline
210
0.0
220
0.0
230
1.0
 70
    24
 71
     3
 72
    24
 73
    20
 74
     0
 42
0.00000001
 43
0.00000001
 40
0.0
 40
0.0
 40
0.0
 40
0.0
 40
0.0211310350232564
 40
0.0835990888596311
 40
0.1460671426960055
 40
0.20853519653238
 40
0.2710032503687544
 40
0.3334713042051289
 40
0.3959393580415032
 40
0.4584074118778775
 40
0.520875465714252
 40
0.5833435195506267
 40
0.6458115733870011
 40
0.7082796272233755
 40
0.7707476810597498
 40
0.8332157348961243
 40
0.895683788732499
 40
0.9581518425688734
 40
1.0
 40
1.0
 40
1.0
 40
1.0
 10
9030.216917493326
 20
5662.646432845983
 30
0.0
 10
9030.216917493326
 20
5662.654684290501
 30
0.0
 10
9030.216917493326
 20
5662.687328845899
 30
0.0
 10
9030.216917493326
 20
5662.473847719336
 30
0.0
 10
9030.216917493326
 20
5662.012185755471
 30
0.0
 10
9030.216917493326
 20
5661.294648118409
 30
0.0
 10
9030.216917493328
 20
5660.371813221454
 30
0.0
 10
9030.216917493328
 20
5659.272981145469
 30
0.0
 10
9030.21691749333
 20
5658.042031333372
 30
0.0
 10
9030.21691749333
 20
5656.725824672935
 30
0.0
 10
9030.216917493331
 20
5655.375065598239
 30
0.0
 10
9030.216917493331
 20
5654.041613445162
 30
0.0
 10
9030.216917493333
 20
5652.776786993273
 30
0.0
 10
9030.216917493333
 20
5651.628942547102
 30
0.0
 10
9030.216917493335
 20
5650.643117230638
 30
0.0
 10
9030.216917493335
 20
5649.853741602065
 30
0.0
 10
9030.216917493335
 20
5649.304041441938
 30
0.0
 10
9030.216917493337
 20
5649.004114157154
 30
0.0
 10
9030.216917493337
 20
5649.004839673536
 30
0.0
 10
9030.216917493337
 20
5649.00513072632
 30
0.0
  0
LINE
  5
1ED
330
1F
100
AcDbEntity
  8
0
  6
Continuous
 62
     8
370
    25
100
AcDbLine
 10
9032.4613550621
 20
5651.2360268984
 30
0.0
 11
9032.4613550621
 21
5650.5259615384
 31
0.0
  0
LINE
  5
1EE
330
1F
100
AcDbEntity
  8
0
  6
Continuous
 62
     8
370
    25
100
AcDbLine
 10
9032.4613550621
 20
5661.1259615384
 30
0.0
 11
9032.4613550621
 21
5651.2360268984
 31
0.0
  0
LINE
  5
1EF
330
1F
100
AcDbEntity
  8
0
  6
Continuous
 62
     8
370
    25
100
AcDbLine
 10
9036.3613550621
 20
5651.2360268984
 30
0.0
 11
9036.3613550621
 21
5661.1259615384
 31
0.0
  0
LINE
  5
1F0
330
1F
100
AcDbEntity
  8
0
  6
Continuous
 62
     8
370
    25
100
AcDbLine
 10
9036.3613550621
 20
5650.5259615384
 30
0.0
 11
9036.3613550621
 21
5651.2360268984
 31
0.0
  0
ARC
  5
1F1
330
1F
100
AcDbEntity
  8
0
  6
Continuous
 62
     7
370
    25
100
AcDbCircle
 10
8694.4615384615
 20
5354.9016627742
 30
0.0
 40
2.0
100
AcDbArc
 50
0.0
 51
90.0
  0
ARC
  5
1F2
330
1F
100
AcDbEntity
  8
0
  6
Continuous
 62
     7
370
    25
100
AcDbCircle
 10
8657.4615384615
 20
5354.9016627742
 30
0.0
 40
2.0
100
AcDbArc
 50
90.0
 51
180.0
  0
LINE
  5
1F3
330
1F
100
AcDbEntity
  8
0
  6
Continuous
 62
     7
370
    25
100
AcDbLine
 10
8709.3282051283
 20
5247.1016627739
 30
0.0
 11
8700.994871795
 21
5247.1016627739
 31
0.0
  0
LINE
  5
1F4
330
1F
100
AcDbEntity
  8
0
  6
Continuous
 62
     7
370
    25
100
AcDbLine
 10
8700.994871795
 20
5239.9016627739
 30
0.0
 11
8709.3282051283
 21
5239.9016627739
 31
0.0
  0
LINE
  5
1F5
330
1F
100
AcDbEntity
  8
0
  6
Continuous
 62
     7
370
    25
100
AcDbLine
 10
8725.994871795
 20
5247.1016627739
 30
0.0
 11
8717.6615384617
 21
5247.1016627739
 31
0.0
  0
LINE
  5
1F6
330
1F
100
AcDbEntity
  8
0
  6
Continuous
 62
     7
370
    25
100
AcDbLine
 10
8717.6615384617
 20
5239.9016627739
 30
0.0
 11
8725.994871795
 21
5239.9016627739
 31
0.0
  0
LINE
  5
1F7
330
1F
100
AcDbEntity
  8
0
  6
Continuous
 62
     7
370
    25
100
AcDbLine
 10
8742.6615384617
 20
5247.1016627739
 30
0.0
 11
8734.3282051283
 21
5247.1016627739
 31
0.0
  0
LINE
  5
1F8
330
1F
100
AcDbEntity
  8
0
  6
Continuous
 62
     7
370
    25
100
AcDbLine
 10
8734.3282051283
 20
5239.9016627739
 30
0.0
 11
8742.6615384617
 21
5239.9016627739
 31
0.0
  0
ARC
  5
1F9
330
1F
100
AcDbEntity
  8
0
  6
Continuous
 62
     7
370
    25
100
AcDbCircle
 10
8742.8781831406
 20
5246.685018095
 30
0.0
 40
0.216644678941915
100
AcDbArc
 50
37.0509748059
 51
180.0
  0
ARC
  5
1FA
330
1F
100
AcDbEntity
  8
0
  6
Continuous
 62
     7
370
    25
100
AcDbCircle
 10
8742.8781831406
 20
5240.3183074528
 30
0.0
 40
0.216644678941915
100
AcDbArc
 50
180.0
 51
322.9490251941
  0
ARC
  5
1FB
330
1F
100
AcDbEntity
  8
0
  6
Continuous
 62
     7
370
    25
100
AcDbCircle
 10
8738.6615384617
 20
5243.5016627739
 30
0.0
 40
5.500000000000552
100
AcDbArc
 50
322.9490251942
 51
37.0509748058
  0
LINE
  5
1FC
330
1F
100
AcDbEntity
  8
0
  6
Continuous
 62
     7
370
    25
100
AcDbLine
 10
8642.5948717949
 20
5239.9016627739
 30
0.0
 11
8650.9282051282
 21
5239.9016627739
 31
0.0
  0
LINE
  5
1FD
330
1F
100
AcDbEntity
  8
0
  6
Continuous
 62
     7
370
    25
100
AcDbLine
 10
8650.9282051282
 20
5247.1016627739
 30
0.0
 11
8642.5948717949
 21
5247.1016627739
 31
0.0
  0
LINE
  5
1FE
330
1F
100
AcDbEntity
  8
0
  6
Continuous
 62
     7
370
    25
100
AcDbLine
 10
8625.9282051282
 20
5239.9016627738
 30
0.0
 11
8634.2615384616
 21
5239.9016627739
 31
0.0
  0
LINE
  5
1FF
330
1F
100
AcDbEntity
  8
0
  6
Continuous
 62
     7
370
    25
100
AcDbLine
 10
8634.2615384616
 20
5247.1016627739
 30
0.0
 11
8625.9282051282
 21
5247.1016627738
 31
0.0
  0
LINE
  5
200
330
1F
100
AcDbEntity
  8
0
  6
Continuous
 62
     7
370
    25
100
AcDbLine
 10
8609.2615384616
 20
5239.9016627738
 30
0.0
 11
8617.5948717949
 21
5239.9016627738
 31
0.0
  0
LINE
  5
201
330
1F
100
AcDbEntity
  8
0
  6
Continuous
 62
     7
370
    25
100
AcDbLine
 10
8617.5948717949
 20
5247.1016627738
 30
0.0
 11
8609.2615384616
 21
5247.1016627738
 31
0.0
  0
ARC
  5
202
330
1F
100
AcDbEntity
  8
0
  6
Continuous
 62
     7
370
    25
100
AcDbCircle
 10
8609.0448937826
 20
5240.3183074528
 30
0.0
 40
0.2166446789415204
100
AcDbArc
 50
217.0509748058
 51
0.0000000002
  0
ARC
  5
203
330
1F
100
AcDbEntity
  8
0
  6
Continuous
 62
     7
370
    25
100
AcDbCircle
 10
8609.0448937826
 20
5246.6850180949
 30
0.0
 40
0.2166446789415204
100
AcDbArc
 50
0.0
 51
142.9490251945
  0
ARC
  5
204
330
1F
100
AcDbEntity
  8
0
  6
Continuous
 62
     7
370
    25
100
AcDbCircle
 10
8613.2615384616
 20
5243.5016627738
 30
0.0
 40
5.500000000000004
100
AcDbArc
 50
142.9490251942
 51
217.0509748058
  0
LINE
  5
205
330
1F
100
AcDbEntity
  8
0
  6
Continuous
 62
     7
370
    25
100
AcDbLine
 10
8625.9282051282
 20
5247.1016627738
 30
0.0
 11
8617.5948717949
 21
5247.1016627738
 31
0.0
  0
LINE
  5
206
330
1F
100
AcDbEntity
  8
0
  6
Continuous
 62
     7
370
    25
100
AcDbLine
 10
8617.5948717949
 20
5239.9016627738
 30
0.0
 11
8625.9282051282
 21
5239.9016627738
 31
0.0
  0
LINE
  5
207
330
1F
100
AcDbEntity
  8
0
  6
Continuous
 62
     7
370
    25
100
AcDbLine
 10
8642.5948717949
 20
5247.1016627739
 30
0.0
 11
8634.2615384615
 21
5247.1016627739
 31
0.0
  0
LINE
  5
208
330
1F
100
AcDbEntity
  8
0
  6
Continuous
 62
     7
370
    25
100
AcDbLine
 10
8634.2615384616
 20
5239.9016627739
 30
0.0
 11
8642.5948717949
 21
5239.9016627739
 31
0.0
  0
LINE
  5
209
330
1F
100
AcDbEntity
  8
0
  6
Continuous
 62
     7
370
    25
100
AcDbLine
 10
8659.2615384615
 20
5247.1016627739
 30
0.0
 11
8650.9282051282
 21
5247.1016627739
 31
0.0
  0
LINE
  5
20A
330
1F
100
AcDbEntity
  8
0
  6
Continuous
 62
     7
370
    25
100
AcDbLine
 10
8650.9282051282
 20
5239.9016627739
 30
0.0
 11
8659.2615384615
 21
5239.9016627739
 31
0.0
  0
ARC
  5
20B
330
1F
100
AcDbEntity
  8
0
  6
Continuous
 62
     7
370
    25
100
AcDbCircle
 10
8659.4781831405
 20
5246.6850180949
 30
0.0
 40
0.2166446789433668
100
AcDbArc
 50
37.0509748056
 51
180.0
  0
ARC
  5
20C
330
1F
100
AcDbEntity
  8
0
  6
Continuous
 62
     7
370
    25
100
AcDbCircle
 10
8659.4781831405
 20
5240.3183074528
 30
0.0
 40
0.216644678941915
100
AcDbArc
 50
180.0
 51
322.9490251941
  0
ARC
  5
20D
330
1F
100
AcDbEntity
  8
0
  6
Continuous
 62
     7
370
    25
100
AcDbCircle
 10
8655.2615384616
 20
5243.5016627739
 30
0.0
 40
5.499999999999841
100
AcDbArc
 50
322.9490251942
 51
37.0509748058
  0
LINE
  5
20E
330
1F
100
AcDbEntity
  8
0
  6
Continuous
 62
     7
370
    25
100
AcDbLine
 10
8725.994871795
 20
5239.9016627739
 30
0.0
 11
8734.3282051283
 21
5239.9016627739
 31
0.0
  0
LINE
  5
20F
330
1F
100
AcDbEntity
  8
0
  6
Continuous
 62
     7
370
    25
100
AcDbLine
 10
8734.3282051283
 20
5247.1016627739
 30
0.0
 11
8725.994871795
 21
5247.1016627739
 31
0.0
  0
LINE
  5
210
330
1F
100
AcDbEntity
  8
0
  6
Continuous
 62
     7
370
    25
100
AcDbLine
 10
8709.3282051283
 20
5239.9016627739
 30
0.0
 11
8717.6615384617
 21
5239.9016627739
 31
0.0
  0
LINE
  5
211
330
1F
100
AcDbEntity
  8
0
  6
Continuous
 62
     7
370
    25
100
AcDbLine
 10
8717.6615384617
 20
5247.1016627739
 30
0.0
 11
8709.3282051283
 21
5247.1016627739
 31
0.0
  0
LINE
  5
212
330
1F
100
AcDbEntity
  8
0
  6
Continuous
 62
     7
370
    25
100
AcDbLine
 10
8692.6615384617
 20
5239.9016627739
 30
0.0
 11
8700.994871795
 21
5239.9016627739
 31
0.0
  0
LINE
  5
213
330
1F
100
AcDbEntity
  8
0
  6
Continuous
 62
     7
370
    25
100
AcDbLine
 10
8700.994871795
 20
5247.1016627739
 30
0.0
 11
8692.6615384617
 21
5247.1016627739
 31
0.0
  0
ARC
  5
214
330
1F
100
AcDbEntity
  8
0
  6
Continuous
 62
     7
370
    25
100
AcDbCircle
 10
8692.4448937827
 20
5240.3183074528
 30
0.0
 40
0.2166446789415204
100
AcDbArc
 50
217.0509748057
 51
0.0
  0
ARC
  5
215
330
1F
100
AcDbEntity
  8
0
  6
Continuous
 62
     7
370
    25
100
AcDbCircle
 10
8692.4448937827
 20
5246.6850180949
 30
0.0
 40
0.2166446789415204
100
AcDbArc
 50
0.0
 51
142.949025194
  0
ARC
  5
216
330
1F
100
AcDbEntity
  8
0
  6
Continuous
 62
     7
370
    25
100
AcDbCircle
 10
8696.6615384617
 20
5243.5016627739
 30
0.0
 40
5.499999999999293
100
AcDbArc
 50
142.9490251942
 51
217.0509748058
  0
LINE
  5
217
330
1F
100
AcDbEntity
  8
0
  6
Continuous
 62
     7
370
    25
100
AcDbLine
 10
8625.6465838624
 20
5221.0209910957
 30
0.0
 11
8627.0620560586
 21
5220.6417164615
 31
0.0
  0
LINE
  5
218
330
1F
100
AcDbEntity
  8
0
  6
Continuous
 62
     7
370
    25
100
AcDbLine
 10
8643.8610208644
 20
5220.6417164615
 30
0.0
 11
8645.2764930605
 21
5221.0209910957
 31
0.0
  0
LINE
  5
219
330
1F
100
AcDbEntity
  8
0
  6
Continuous
 62
     7
370
    25
100
AcDbLine
 10
8645.2764930377
 20
5222.4823344577
 30
0.0
 11
8643.7115384618
 21
5222.901662775
 31
0.0
  0
LINE
  5
21A
330
1F
100
AcDbEntity
  8
0
  6
Continuous
 62
     7
370
    25
100
AcDbLine
 10
8627.2115384611
 20
5222.901662775
 30
0.0
 11
8625.6465838853
 21
5222.4823344577
 31
0.0
  0
ARC
  5
21B
330
1F
100
AcDbEntity
  8
0
  6
Continuous
 62
     7
370
    25
100
AcDbCircle
 10
8642.3115384615
 20
5220.6016627737
 30
0.0
 40
1.550000000001091
100
AcDbArc
 50
270.0
 51
1.4807501636
  0
ARC
  5
21C
330
1F
100
AcDbEntity
  8
0
  6
Continuous
 62
     7
370
    25
100
AcDbCircle
 10
8628.6115384615
 20
5220.6016627737
 30
0.0
 40
1.550000000001091
100
AcDbArc
 50
178.5192498364
 51
270.0
  0
LINE
  5
21D
330
1F
100
AcDbEntity
  8
0
  6
Continuous
 62
     7
370
    25
100
AcDbLine
 10
8642.3115384615
 20
5217.3461003424
 30
0.0
 11
8642.3115384615
 21
5219.0516627737
 31
0.0
  0
LINE
  5
21E
330
1F
100
AcDbEntity
  8
0
  6
Continuous
 62
     7
370
    25
100
AcDbLine
 10
8628.6115384615
 20
5219.0516627737
 30
0.0
 11
8628.6115384615
 21
5217.3461003424
 31
0.0
  0
SPLINE
  5
21F
330
1F
100
AcDbEntity
  8
0
  6
Continuous
 62
     7
370
    25
100
AcDbSpline
210
0.0
220
0.0
230
1.0
 70
     8
 71
     3
 72
    11
 73
     7
 74
     0
 42
0.00000001
 43
0.00000001
 40
0.0
 40
0.0
 40
0.0
 40
0.0
 40
0.2958547960185045
 40
0.5608436931364504
 40
0.7955371379176279
 40
1.0
 40
1.0
 40
1.0
 40
1.0
 10
8628.607613803759
 20
5217.346100342415
 30
0.0
 10
8628.627752501503
 20
5217.154566921934
 30
0.0
 10
8628.665928869672
 20
5216.791482353602
 30
0.0
 10
8628.934404227719
 20
5216.341140908867
 30
0.0
 10
8629.266546744373
 20
5216.023967983339
 30
0.0
 10
8629.522617333867
 20
5215.905135011692
 30
0.0
 10
8629.64183895224
 20
5215.849808629916
 30
0.0
  0
SPLINE
  5
220
330
1F
100
AcDbEntity
  8
0
  6
Continuous
 62
     7
370
    25
100
AcDbSpline
210
0.0
220
0.0
230
1.0
 70
     8
 71
     3
 72
    11
 73
     7
 74
     0
 42
0.00000001
 43
0.00000001
 40
0.0
 40
0.0
 40
0.0
 40
0.0
 40
0.2041762736205622
 40
0.4388187840346624
 40
0.703928198022632
 40
1.0
 40
1.0
 40
1.0
 40
1.0
 10
8641.278075075912
 20
5215.849808629916
 30
0.0
 10
8641.397248643972
 20
5215.905158805247
 30
0.0
 10
8641.653378307316
 20
5216.024118252419
 30
0.0
 10
8641.985266966418
 20
5216.341271979775
 30
0.0
 10
8642.253640209872
 20
5216.791552858894
 30
0.0
 10
8642.29177967215
 20
5217.15457477261
 30
0.0
 10
8642.311901549008
 20
5217.346100342415
 30
0.0
  0
ARC
  5
221
330
1F
100
AcDbEntity
  8
0
  6
Continuous
 62
     7
370
    25
100
AcDbCircle
 10
8641.5615384615
 20
5215.1016627737
 30
0.0
 40
0.8000000000001696
100
AcDbArc
 50
115.2107764744
 51
179.9999999999
  0
ARC
  5
222
330
1F
100
AcDbEntity
  8
0
  6
Continuous
 62
     7
370
    25
100
AcDbCircle
 10
8629.3615384615
 20
5215.1016627737
 30
0.0
 40
0.8000000000010914
100
AcDbArc
 50
0.0000000001
 51
67.7001114028
  0
ARC
  5
223
330
1F
100
AcDbEntity
  8
0
  6
Continuous
 62
     7
370
    25
100
AcDbCircle
 10
8639.1615384615
 20
5211.2016627737
 30
0.0
 40
1.600000000002183
100
AcDbArc
 50
270.0
 51
360.0
  0
ARC
  5
224
330
1F
100
AcDbEntity
  8
0
  6
Continuous
 62
     7
370
    25
100
AcDbCircle
 10
8631.7615384615
 20
5211.2016627737
 30
0.0
 40
1.599999999999454
100
AcDbArc
 50
180.0
 51
270.0
  0
LINE
  5
225
330
1F
100
AcDbEntity
  8
0
  6
Continuous
 62
     7
370
    25
100
AcDbLine
 10
8640.7615384615
 20
5211.2016627737
 30
0.0
 11
8640.7615384615
 21
5215.1016627737
 31
0.0
  0
LINE
  5
226
330
1F
100
AcDbEntity
  8
0
  6
Continuous
 62
     7
370
    25
100
AcDbLine
 10
8630.1615384615
 20
5215.1016627737
 30
0.0
 11
8630.1615384615
 21
5211.2016627737
 31
0.0
  0
LINE
  5
227
330
1F
100
AcDbEntity
  8
0
  6
Continuous
 62
     7
370
    25
100
AcDbLine
 10
8663.9615384615
 20
5221.8016627735
 30
0.0
 11
8664.9615384615
 21
5220.8016627735
 31
0.0
  0
LINE
  5
228
330
1F
100
AcDbEntity
  8
0
  6
Continuous
 62
     7
370
    25
100
AcDbLine
 10
8686.9615384615
 20
5220.8016627735
 30
0.0
 11
8687.9615384615
 21
5221.8016627735
 31
0.0
  0
LINE
  5
229
330
1F
100
AcDbEntity
  8
0
  6
Continuous
 62
     7
370
    25
100
AcDbLine
 10
8663.9615384615
 20
5222.9016627735
 30
0.0
 11
8663.9615384615
 21
5221.8016627735
 31
0.0
  0
LINE
  5
22A
330
1F
100
AcDbEntity
  8
0
  6
Continuous
 62
     7
370
    25
100
AcDbLine
 10
8687.9615384615
 20
5221.8016627735
 30
0.0
 11
8687.9615384615
 21
5222.9016627735
 31
0.0
  0
ARC
  5
22B
330
1F
100
AcDbEntity
  8
0
  6
Continuous
 62
     7
370
    25
100
AcDbCircle
 10
8681.3615384615
 20
5220.8016627735
 30
0.0
 40
0.1999999999998181
100
AcDbArc
 50
270.0
 51
0.0
  0
ARC
  5
22C
330
1F
100
AcDbEntity
  8
0
  6
Continuous
 62
     7
370
    25
100
AcDbCircle
 10
8670.5615384615
 20
5220.8016627735
 30
0.0
 40
0.1999999999998181
100
AcDbArc
 50
180.0
 51
270.0
  0
LINE
  5
22D
330
1F
100
AcDbEntity
  8
0
  6
Continuous
 62
     7
370
    25
100
AcDbLine
 10
8676.0555241001
 20
5220.6016627735
 30
0.0
 11
8676.0555241001
 21
5220.8016627735
 31
0.0
  0
LINE
  5
22E
330
1F
100
AcDbEntity
  8
0
  6
Continuous
 62
     7
370
    25
100
AcDbLine
 10
8736.0051860526
 20
5218.4016627738
 30
0.0
 11
8736.0051860526
 21
5222.9016627736
 31
0.0
  0
LINE
  5
22F
330
1F
100
AcDbEntity
  8
0
  6
Continuous
 62
     7
370
    25
100
AcDbLine
 10
8713.4051860526
 20
5218.4016627738
 30
0.0
 11
8713.4051860526
 21
5212.4016627738
 31
0.0
  0
LINE
  5
230
330
1F
100
AcDbEntity
  8
0
  6
Continuous
 62
     7
370
    25
100
AcDbLine
 10
8733.6051860526
 20
5212.4016627738
 30
0.0
 11
8733.6051860526
 21
5218.4016627738
 31
0.0
  0
ARC
  5
231
330
1F
100
AcDbEntity
  8
0
  6
Continuous
 62
     7
370
    25
100
AcDbCircle
 10
8723.5051860526
 20
5236.9041627738
 30
0.0
 40
26.50249999999977
100
AcDbArc
 50
247.5984044242
 51
270.0
  0
ARC
  5
232
330
1F
100
AcDbEntity
  8
0
  6
Continuous
 62
     7
370
    25
100
AcDbCircle
 10
8723.5051860526
 20
5236.9041627738
 30
0.0
 40
26.50249999999977
100
AcDbArc
 50
270.0
 51
292.4015955758
  0
LINE
  5
233
330
1F
100
AcDbEntity
  8
0
  6
Continuous
 62
     7
370
    25
100
AcDbLine
 10
8694.4615384615
 20
5356.9016627742
 30
0.0
 11
8657.4615385303
 21
5356.9016627742
 31
0.0
  0
LINE
  5
234
330
1F
100
AcDbEntity
  8
0
  6
Continuous
 62
     7
370
    25
100
AcDbLine
 10
8595.1383151569
 20
5250.176018386
 30
0.0
 11
8594.961538462
 21
5250.176018386
 31
0.0
  0
LINE
  5
235
330
1F
100
AcDbEntity
  8
0
  6
Continuous
 62
     7
370
    25
100
AcDbLine
 10
8595.1383151568
 20
5237.68039066
 30
0.0
 11
8594.9995190795
 21
5238.4675423301
 31
0.0
  0
ARC
  5
236
330
1F
100
AcDbEntity
  8
0
  6
Continuous
 62
     7
370
    25
100
AcDbCircle
 10
8597.461538462
 20
5238.9016627742
 30
0.0
 40
2.5
100
AcDbArc
 50
180.0
 51
190.0
  0
LINE
  5
237
330
1F
100
AcDbEntity
  8
0
  6
Continuous
 62
     7
370
    25
100
AcDbLine
 10
8594.961538462
 20
5340.1760183861
 30
0.0
 11
8595.1383151569
 21
5340.1760183861
 31
0.0
  0
LINE
  5
238
330
1F
100
AcDbEntity
  8
0
  6
Continuous
 62
     7
370
    25
100
AcDbLine
 10
8756.9615384621
 20
5250.176018386
 30
0.0
 11
8756.7847617664
 21
5250.176018386
 31
0.0
  0
LINE
  5
239
330
1F
100
AcDbEntity
  8
0
  6
Continuous
 62
     7
370
    25
100
AcDbLine
 10
8756.961538462
 20
5340.176018386
 30
0.0
 11
8756.7847617663
 21
5340.176018386
 31
0.0
  0
LINE
  5
23A
330
1F
100
AcDbEntity
  8
0
  6
Continuous
 62
     7
370
    25
100
AcDbLine
 10
8660.9615384616
 20
5247.1016627742
 30
0.0
 11
8659.2615384615
 21
5247.1016627742
 31
0.0
  0
LINE
  5
23B
330
1F
100
AcDbEntity
  8
0
  6
Continuous
 62
     7
370
    25
100
AcDbLine
 10
8609.2615384616
 20
5247.1016627742
 30
0.0
 11
8607.7615384615
 21
5247.1016627742
 31
0.0
  0
LINE
  5
23C
330
1F
100
AcDbEntity
  8
0
  6
Continuous
 62
     7
370
    25
100
AcDbLine
 10
8607.7615384615
 20
5247.1016627742
 30
0.0
 11
8607.7615384615
 21
5240.2656330085
 31
0.0
  0
LINE
  5
23D
330
1F
100
AcDbEntity
  8
0
  6
Continuous
 62
     7
370
    25
100
AcDbLine
 10
8595.1383151568
 20
5240.2656330085
 30
0.0
 11
8607.7615384615
 21
5240.2656330085
 31
0.0
  0
LINE
  5
23E
330
1F
100
AcDbEntity
  8
0
  6
Continuous
 62
     7
370
    25
100
AcDbLine
 10
8595.1383151568
 20
5240.2656330085
 30
0.0
 11
8595.1383151568
 21
5352.4016627742
 31
0.0
  0
LINE
  5
23F
330
1F
100
AcDbEntity
  8
0
  6
Continuous
 62
     7
370
    25
100
AcDbLine
 10
8595.1383151568
 20
5352.4016627742
 30
0.0
 11
8756.7847617663
 21
5352.4016627742
 31
0.0
  0
LINE
  5
240
330
1F
100
AcDbEntity
  8
0
  6
Continuous
 62
     7
370
    25
100
AcDbLine
 10
8756.7847617663
 20
5352.4016627742
 30
0.0
 11
8756.7847617663
 21
5240.2656330085
 31
0.0
  0
LINE
  5
241
330
1F
100
AcDbEntity
  8
0
  6
Continuous
 62
     7
370
    25
100
AcDbLine
 10
8744.1615384616
 20
5240.2656330085
 30
0.0
 11
8756.7847617663
 21
5240.2656330085
 31
0.0
  0
LINE
  5
242
330
1F
100
AcDbEntity
  8
0
  6
Continuous
 62
     7
370
    25
100
AcDbLine
 10
8744.1615384616
 20
5240.2656330085
 30
0.0
 11
8744.1615384616
 21
5247.1016627742
 31
0.0
  0
LINE
  5
243
330
1F
100
AcDbEntity
  8
0
  6
Continuous
 62
     7
370
    25
100
AcDbLine
 10
8744.1615384616
 20
5247.1016627742
 30
0.0
 11
8742.6615384617
 21
5247.1016627742
 31
0.0
  0
LINE
  5
244
330
1F
100
AcDbEntity
  8
0
  6
Continuous
 62
     7
370
    25
100
AcDbLine
 10
8692.6615384617
 20
5247.1016627742
 30
0.0
 11
8690.9615384616
 21
5247.1016627742
 31
0.0
  0
LINE
  5
245
330
1F
100
AcDbEntity
  8
0
  6
Continuous
 62
     7
370
    25
100
AcDbLine
 10
8690.9615384616
 20
5240.2656330085
 30
0.0
 11
8690.9615384616
 21
5247.1016627742
 31
0.0
  0
LINE
  5
246
330
1F
100
AcDbEntity
  8
0
  6
Continuous
 62
     7
370
    25
100
AcDbLine
 10
8660.9615384616
 20
5240.2656330085
 30
0.0
 11
8690.9615384616
 21
5240.2656330085
 31
0.0
  0
LINE
  5
247
330
1F
100
AcDbEntity
  8
0
  6
Continuous
 62
     7
370
    25
100
AcDbLine
 10
8660.9615384616
 20
5247.1016627742
 30
0.0
 11
8660.9615384616
 21
5240.2656330085
 31
0.0
  0
LINE
  5
248
330
1F
100
AcDbEntity
  8
0
  6
Continuous
 62
     7
370
    25
100
AcDbLine
 10
8607.7615384615
 20
5240.2656330085
 30
0.0
 11
8607.7615384615
 21
5239.9016627742
 31
0.0
  0
LINE
  5
249
330
1F
100
AcDbEntity
  8
0
  6
Continuous
 62
     7
370
    25
100
AcDbLine
 10
8607.7615384615
 20
5239.9016627742
 30
0.0
 11
8595.1383151568
 21
5239.9016627742
 31
0.0
  0
LINE
  5
24A
330
1F
100
AcDbEntity
  8
0
  6
Continuous
 62
     7
370
    25
100
AcDbLine
 10
8595.1383151568
 20
5239.9016627742
 30
0.0
 11
8595.1383151568
 21
5240.2656330085
 31
0.0
  0
LINE
  5
24B
330
1F
100
AcDbEntity
  8
0
  6
Continuous
 62
     7
370
    25
100
AcDbLine
 10
8690.9615384616
 20
5239.9016627742
 30
0.0
 11
8660.9615384616
 21
5239.9016627742
 31
0.0
  0
LINE
  5
24C
330
1F
100
AcDbEntity
  8
0
  6
Continuous
 62
     7
370
    25
100
AcDbLine
 10
8660.9615384616
 20
5239.9016627742
 30
0.0
 11
8660.9615384616
 21
5240.2656330085
 31
0.0
  0
LINE
  5
24D
330
1F
100
AcDbEntity
  8
0
  6
Continuous
 62
     7
370
    25
100
AcDbLine
 10
8690.9615384616
 20
5240.2656330085
 30
0.0
 11
8690.9615384616
 21
5239.9016627742
 31
0.0
  0
LINE
  5
24E
330
1F
100
AcDbEntity
  8
0
  6
Continuous
 62
     7
370
    25
100
AcDbLine
 10
8756.7847617663
 20
5240.2656330085
 30
0.0
 11
8756.7847617663
 21
5239.9016627742
 31
0.0
  0
LINE
  5
24F
330
1F
100
AcDbEntity
  8
0
  6
Continuous
 62
     7
370
    25
100
AcDbLine
 10
8756.7847617663
 20
5239.9016627742
 30
0.0
 11
8744.1615384616
 21
5239.9016627742
 31
0.0
  0
LINE
  5
250
330
1F
100
AcDbEntity
  8
0
  6
Continuous
 62
     7
370
    25
100
AcDbLine
 10
8744.1615384616
 20
5239.9016627742
 30
0.0
 11
8744.1615384616
 21
5240.2656330085
 31
0.0
  0
ELLIPSE
  5
251
330
1F
100
AcDbEntity
  8
0
  6
Continuous
 62
     7
370
    25
100
AcDbEllipse
 10
8755.9615384615
 20
5352.4016627742
 30
0.0
 11
0.0
 21
2.5
 31
0.0
210
0.0
220
0.0
230
1.0
 40
0.3292893219
 41
4.712388980385058
 42
6.283185307179586
  0
ELLIPSE
  5
252
330
1F
100
AcDbEntity
  8
0
  6
Continuous
 62
     7
370
    25
100
AcDbEllipse
 10
8595.9615384615
 20
5352.4016627742
 30
0.0
 11
0.0
 21
2.499999999999091
 31
0.0
210
0.0
220
0.0
230
1.0
 40
0.3292893219
 41
0.0
 42
1.570796326794897
  0
LINE
  5
253
330
1F
100
AcDbEntity
  8
0
  6
Continuous
 62
     7
370
    25
100
AcDbLine
 10
8595.9615384616
 20
5354.9016627742
 30
0.0
 11
8755.9615384615
 21
5354.9016627742
 31
0.0
  0
ARC
  5
254
330
1F
100
AcDbEntity
  8
0
  6
Continuous
 62
     7
370
    25
100
AcDbCircle
 10
8755.9615384615
 20
5352.4016627742
 30
0.0
 40
1.000000000000738
100
AcDbArc
 50
0.0000000001
 51
36.9594728066
  0
ARC
  5
255
330
1F
100
AcDbEntity
  8
0
  6
Continuous
 62
     7
370
    25
100
AcDbCircle
 10
8755.9615384615
 20
5352.4016627742
 30
0.0
 40
2.5
100
AcDbArc
 50
0.0
 51
90.0000000005
  0
LINE
  5
256
330
1F
100
AcDbEntity
  8
0
  6
Continuous
 62
     7
370
    25
100
AcDbLine
 10
8758.4615384615
 20
5352.4016627742
 30
0.0
 11
8756.9615384615
 21
5352.4016627742
 31
0.0
  0
LINE
  5
257
330
1F
100
AcDbEntity
  8
0
  6
Continuous
 62
     7
370
    25
100
AcDbLine
 10
8756.9615384616
 20
5239.9016627742
 30
0.0
 11
8756.9615384615
 21
5352.4016627742
 31
0.0
  0
LINE
  5
258
330
1F
100
AcDbEntity
  8
0
  6
Continuous
 62
     7
370
    25
100
AcDbLine
 10
8758.4615384616
 20
5239.9016627742
 30
0.0
 11
8758.4615384615
 21
5352.4016627742
 31
0.0
  0
LINE
  5
259
330
1F
100
AcDbEntity
  8
0
  6
Continuous
 62
     7
370
    25
100
AcDbLine
 10
8758.4615384616
 20
5239.9016627742
 30
0.0
 11
8756.9615384616
 21
5239.9016627742
 31
0.0
  0
LINE
  5
25A
330
1F
100
AcDbEntity
  8
0
  6
Continuous
 62
     7
370
    25
100
AcDbLine
 10
8593.4615384615
 20
5352.4016627742
 30
0.0
 11
8594.9615384615
 21
5352.4016627742
 31
0.0
  0
ARC
  5
25B
330
1F
100
AcDbEntity
  8
0
  6
Continuous
 62
     7
370
    25
100
AcDbCircle
 10
8595.9615384615
 20
5352.4016627742
 30
0.0
 40
2.500000000001819
100
AcDbArc
 50
89.9999999983
 51
180.0
  0
ARC
  5
25C
330
1F
100
AcDbEntity
  8
0
  6
Continuous
 62
     7
370
    25
100
AcDbCircle
 10
8595.9615384615
 20
5352.4016627742
 30
0.0
 40
1.000000000001819
100
AcDbArc
 50
143.0405271918
 51
180.0
  0
LINE
  5
25D
330
1F
100
AcDbEntity
  8
0
  6
Continuous
 62
     7
370
    25
100
AcDbLine
 10
8593.4615384615
 20
5239.9016627742
 30
0.0
 11
8594.9615384615
 21
5239.9016627742
 31
0.0
  0
LINE
  5
25E
330
1F
100
AcDbEntity
  8
0
  6
Continuous
 62
     7
370
    25
100
AcDbLine
 10
8594.9615384615
 20
5352.4016627742
 30
0.0
 11
8594.9615384615
 21
5239.9016627742
 31
0.0
  0
LINE
  5
25F
330
1F
100
AcDbEntity
  8
0
  6
Continuous
 62
     7
370
    25
100
AcDbLine
 10
8593.4615384615
 20
5352.4016627742
 30
0.0
 11
8593.4615384615
 21
5239.9016627742
 31
0.0
  0
LINE
  5
260
330
1F
100
AcDbEntity
  8
0
  6
Continuous
 62
     7
370
    25
100
AcDbLine
 10
8709.3282051283
 20
5239.9016627739
 30
0.0
 11
8709.3282051283
 21
5247.1016627739
 31
0.0
  0
LINE
  5
261
330
1F
100
AcDbEntity
  8
0
  6
Continuous
 62
     7
370
    25
100
AcDbLine
 10
8700.994871795
 20
5247.1016627739
 30
0.0
 11
8700.994871795
 21
5239.9016627739
 31
0.0
  0
LINE
  5
262
330
1F
100
AcDbEntity
  8
0
  6
Continuous
 62
     7
370
    25
100
AcDbLine
 10
8725.994871795
 20
5239.9016627739
 30
0.0
 11
8725.994871795
 21
5247.1016627739
 31
0.0
  0
LINE
  5
263
330
1F
100
AcDbEntity
  8
0
  6
Continuous
 62
     7
370
    25
100
AcDbLine
 10
8717.6615384617
 20
5247.1016627739
 30
0.0
 11
8717.6615384617
 21
5239.9016627739
 31
0.0
  0
LINE
  5
264
330
1F
100
AcDbEntity
  8
0
  6
Continuous
 62
     7
370
    25
100
AcDbLine
 10
8742.6615384617
 20
5239.9016627739
 30
0.0
 11
8742.6615384617
 21
5247.1016627739
 31
0.0
  0
LINE
  5
265
330
1F
100
AcDbEntity
  8
0
  6
Continuous
 62
     7
370
    25
100
AcDbLine
 10
8734.3282051283
 20
5247.1016627739
 30
0.0
 11
8734.3282051283
 21
5239.9016627739
 31
0.0
  0
LINE
  5
266
330
1F
100
AcDbEntity
  8
0
  6
Continuous
 62
     7
370
    25
100
AcDbLine
 10
8642.5948717949
 20
5247.1016627739
 30
0.0
 11
8642.5948717949
 21
5239.9016627739
 31
0.0
  0
LINE
  5
267
330
1F
100
AcDbEntity
  8
0
  6
Continuous
 62
     7
370
    25
100
AcDbLine
 10
8650.9282051282
 20
5239.9016627739
 30
0.0
 11
8650.9282051282
 21
5247.1016627739
 31
0.0
  0
LINE
  5
268
330
1F
100
AcDbEntity
  8
0
  6
Continuous
 62
     7
370
    25
100
AcDbLine
 10
8634.2615384616
 20
5239.9016627739
 30
0.0
 11
8634.2615384615
 21
5247.1016627739
 31
0.0
  0
LINE
  5
269
330
1F
100
AcDbEntity
  8
0
  6
Continuous
 62
     7
370
    25
100
AcDbLine
 10
8625.9282051282
 20
5247.1016627738
 30
0.0
 11
8625.9282051282
 21
5239.9016627739
 31
0.0
  0
LINE
  5
26A
330
1F
100
AcDbEntity
  8
0
  6
Continuous
 62
     7
370
    25
100
AcDbLine
 10
8617.5948717949
 20
5239.9016627738
 30
0.0
 11
8617.5948717949
 21
5247.1016627738
 31
0.0
  0
LINE
  5
26B
330
1F
100
AcDbEntity
  8
0
  6
Continuous
 62
     7
370
    25
100
AcDbLine
 10
8609.2615384616
 20
5247.1016627738
 30
0.0
 11
8609.2615384616
 21
5239.9016627738
 31
0.0
  0
LINE
  5
26C
330
1F
100
AcDbEntity
  8
0
  6
Continuous
 62
     7
370
    25
100
AcDbLine
 10
8659.2615384616
 20
5239.9016627739
 30
0.0
 11
8659.2615384615
 21
5247.1016627739
 31
0.0
  0
LINE
  5
26D
330
1F
100
AcDbEntity
  8
0
  6
Continuous
 62
     7
370
    25
100
AcDbLine
 10
8692.6615384617
 20
5247.1016627739
 30
0.0
 11
8692.6615384617
 21
5239.9016627739
 31
0.0
  0
LINE
  5
26E
330
1F
100
AcDbEntity
  8
0
  6
Continuous
 62
     7
370
    25
100
AcDbLine
 10
8756.7847617663
 20
5239.3243125044
 30
0.0
 11
8595.1383151568
 21
5239.3243125044
 31
0.0
  0
LINE
  5
26F
330
1F
100
AcDbEntity
  8
0
  6
Continuous
 62
     7
370
    25
100
AcDbLine
 10
8595.1383151568
 20
5239.3243125044
 30
0.0
 11
8595.1383151568
 21
5239.9016627736
 31
0.0
  0
LINE
  5
270
330
1F
100
AcDbEntity
  8
0
  6
Continuous
 62
     7
370
    25
100
AcDbLine
 10
8595.1383151568
 20
5239.9016627736
 30
0.0
 11
8609.2615384616
 21
5239.9016627736
 31
0.0
  0
LINE
  5
271
330
1F
100
AcDbEntity
  8
0
  6
Continuous
 62
     7
370
    25
100
AcDbLine
 10
8659.2615384615
 20
5239.9016627736
 30
0.0
 11
8692.6615384617
 21
5239.9016627736
 31
0.0
  0
LINE
  5
272
330
1F
100
AcDbEntity
  8
0
  6
Continuous
 62
     7
370
    25
100
AcDbLine
 10
8700.994871795
 20
5239.9016627736
 30
0.0
 11
8709.3282051283
 21
5239.9016627736
 31
0.0
  0
LINE
  5
273
330
1F
100
AcDbEntity
  8
0
  6
Continuous
 62
     7
370
    25
100
AcDbLine
 10
8742.6615384617
 20
5239.9016627736
 30
0.0
 11
8756.7847617663
 21
5239.9016627736
 31
0.0
  0
LINE
  5
274
330
1F
100
AcDbEntity
  8
0
  6
Continuous
 62
     7
370
    25
100
AcDbLine
 10
8756.7847617663
 20
5239.9016627736
 30
0.0
 11
8756.7847617663
 21
5239.3243125044
 31
0.0
  0
LINE
  5
275
330
1F
100
AcDbEntity
  8
0
  6
Continuous
 62
     7
370
    25
100
AcDbLine
 10
8756.7847617663
 20
5225.4016627736
 30
0.0
 11
8595.1383151568
 21
5225.4016627736
 31
0.0
  0
LINE
  5
276
330
1F
100
AcDbEntity
  8
0
  6
Continuous
 62
     7
370
    25
100
AcDbLine
 10
8595.1383151568
 20
5225.4016627736
 30
0.0
 11
8595.1383151568
 21
5239.3243125044
 31
0.0
  0
LINE
  5
277
330
1F
100
AcDbEntity
  8
0
  6
Continuous
 62
     7
370
    25
100
AcDbLine
 10
8756.7847617663
 20
5239.3243125044
 30
0.0
 11
8756.7847617663
 21
5225.4016627736
 31
0.0
  0
ELLIPSE
  5
278
330
1F
100
AcDbEntity
  8
0
  6
Continuous
 62
     7
370
    25
100
AcDbEllipse
 10
8595.9615384616
 20
5225.4016627736
 30
0.0
 11
0.0
 21
2.499999999999091
 31
0.0
210
0.0
220
0.0
230
1.0
 40
0.3292893219
 41
1.570796326796352
 42
3.141592653567697
  0
ELLIPSE
  5
279
330
1F
100
AcDbEntity
  8
0
  6
Continuous
 62
     7
370
    25
100
AcDbEllipse
 10
8755.9615384615
 20
5225.4016627736
 30
0.0
 11
0.0
 21
2.499999999999091
 31
0.0
210
0.0
220
0.0
230
1.0
 40
0.3292893219
 41
3.141592653594255
 42
4.712388980383238
  0
LINE
  5
27A
330
1F
100
AcDbEntity
  8
0
  6
Continuous
 62
     7
370
    25
100
AcDbLine
 10
8755.9615384615
 20
5222.9016627736
 30
0.0
 11
8595.9615384616
 21
5222.9016627736
 31
0.0
  0
LINE
  5
27B
330
1F
100
AcDbEntity
  8
0
  6
Continuous
 62
     7
370
    25
100
AcDbLine
 10
8593.4615384615
 20
5225.4016627736
 30
0.0
 11
8594.9615384615
 21
5225.4016627736
 31
0.0
  0
LINE
  5
27C
330
1F
100
AcDbEntity
  8
0
  6
Continuous
 62
     7
370
    25
100
AcDbLine
 10
8593.4615384615
 20
5239.9016627736
 30
0.0
 11
8593.4615384615
 21
5225.4016627736
 31
0.0
  0
LINE
  5
27D
330
1F
100
AcDbEntity
  8
0
  6
Continuous
 62
     7
370
    25
100
AcDbLine
 10
8594.9615384615
 20
5239.9016627736
 30
0.0
 11
8594.9615384615
 21
5225.4016627736
 31
0.0
  0
ARC
  5
27E
330
1F
100
AcDbEntity
  8
0
  6
Continuous
 62
     7
370
    25
100
AcDbCircle
 10
8595.9615384615
 20
5225.4016627736
 30
0.0
 40
1.000000000001819
100
AcDbArc
 50
180.0000000001
 51
216.9594729186
  0
ARC
  5
27F
330
1F
100
AcDbEntity
  8
0
  6
Continuous
 62
     7
370
    25
100
AcDbCircle
 10
8595.9615384615
 20
5225.4016627736
 30
0.0
 40
2.500000000001819
100
AcDbArc
 50
180.0000000001
 51
270.0000000005
  0
LINE
  5
280
330
1F
100
AcDbEntity
  8
0
  6
Continuous
 62
     7
370
    25
100
AcDbLine
 10
8758.4615384616
 20
5225.4016627736
 30
0.0
 11
8756.9615384616
 21
5225.4016627736
 31
0.0
  0
LINE
  5
281
330
1F
100
AcDbEntity
  8
0
  6
Continuous
 62
     7
370
    25
100
AcDbLine
 10
8756.9615384616
 20
5225.4016627736
 30
0.0
 11
8756.9615384616
 21
5239.9016627736
 31
0.0
  0
LINE
  5
282
330
1F
100
AcDbEntity
  8
0
  6
Continuous
 62
     7
370
    25
100
AcDbLine
 10
8758.4615384616
 20
5225.4016627736
 30
0.0
 11
8758.4615384616
 21
5239.9016627736
 31
0.0
  0
ARC
  5
283
330
1F
100
AcDbEntity
  8
0
  6
Continuous
 62
     7
370
    25
100
AcDbCircle
 10
8755.9615384616
 20
5225.4016627736
 30
0.0
 40
1.0000000000013
100
AcDbArc
 50
323.0405272394
 51
359.9999999999
  0
ARC
  5
284
330
1F
100
AcDbEntity
  8
0
  6
Continuous
 62
     7
370
    25
100
AcDbCircle
 10
8755.9615384616
 20
5225.4016627736
 30
0.0
 40
2.500000000000909
100
AcDbArc
 50
269.9999999983
 51
359.9999999999
  0
SPLINE
  5
285
330
1F
100
AcDbEntity
  8
0
  6
Continuous
 62
     7
370
    25
100
AcDbSpline
210
0.0
220
0.0
230
1.0
 70
     8
 71
     3
 72
     9
 73
     5
 74
     0
 42
0.00000001
 43
0.00000001
 40
0.0
 40
0.0
 40
0.0
 40
0.0
 40
0.4952156654701713
 40
1.0
 40
1.0
 40
1.0
 40
1.0
 10
8630.55406114919
 20
5221.020991083072
 30
0.0
 10
8629.74403473746
 20
5220.845951182395
 30
0.0
 10
8628.108330400519
 20
5220.492489220504
 30
0.0
 10
8626.47238399267
 20
5220.843703583897
 30
0.0
 10
8625.646583873857
 20
5221.020991092601
 30
0.0
  0
SPLINE
  5
286
330
1F
100
AcDbEntity
  8
0
  6
Continuous
 62
     7
370
    25
100
AcDbSpline
210
0.0
220
0.0
230
1.0
 70
     8
 71
     3
 72
     9
 73
     5
 74
     0
 42
0.00000001
 43
0.00000001
 40
0.0
 40
0.0
 40
0.0
 40
0.0
 40
0.4952156665690459
 40
1.0
 40
1.0
 40
1.0
 40
1.0
 10
8640.369015772403
 20
5221.020991092606
 30
0.0
 10
8638.748962925265
 20
5220.84595118849
 30
0.0
 10
8635.477554210831
 20
5220.492489220438
 30
0.0
 10
8632.205661387216
 20
5220.8437035778
 30
0.0
 10
8630.55406114919
 20
5221.020991083072
 30
0.0
  0
SPLINE
  5
287
330
1F
100
AcDbEntity
  8
0
  6
Continuous
 62
     7
370
    25
100
AcDbSpline
210
0.0
220
0.0
230
1.0
 70
     8
 71
     3
 72
     9
 73
     5
 74
     0
 42
0.00000001
 43
0.00000001
 40
0.0
 40
0.0
 40
0.0
 40
0.0
 40
0.4952156616863579
 40
1.0
 40
1.0
 40
1.0
 40
1.0
 10
8645.276493049112
 20
5221.0209910926
 30
0.0
 10
8644.466466635058
 20
5220.845951188887
 30
0.0
 10
8642.830762280932
 20
5220.492489218163
 30
0.0
 10
8641.194815889246
 20
5220.843703582233
 30
0.0
 10
8640.369015772403
 20
5221.020991092606
 30
0.0
  0
LINE
  5
288
330
1F
100
AcDbEntity
  8
0
  6
Continuous
 62
     7
370
    25
100
AcDbLine
 10
8628.1873733261
 20
5220.6417164615
 30
0.0
 11
8627.0620560586
 21
5220.6417164615
 31
0.0
  0
LINE
  5
289
330
1F
100
AcDbEntity
  8
0
  6
Continuous
 62
     7
370
    25
100
AcDbLine
 10
8643.8610208644
 20
5220.6417164615
 30
0.0
 11
8628.1873733261
 21
5220.6417164615
 31
0.0
  0
LINE
  5
28A
330
1F
100
AcDbEntity
  8
0
  6
Continuous
 62
     7
370
    25
100
AcDbLine
 10
8630.5540611733
 20
5222.4823344577
 30
0.0
 11
8630.5540611492
 21
5221.0209910831
 31
0.0
  0
SPLINE
  5
28B
330
1F
100
AcDbEntity
  8
0
  6
Continuous
 62
     7
370
    25
100
AcDbSpline
210
0.0
220
0.0
230
1.0
 70
     8
 71
     3
 72
     9
 73
     5
 74
     0
 42
0.00000001
 43
0.00000001
 40
0.0
 40
0.0
 40
0.0
 40
0.0
 40
0.4952156671574094
 40
1.0
 40
1.0
 40
1.0
 40
1.0
 10
8640.36901574956
 20
5222.482334457696
 30
0.0
 10
8638.74896290807
 20
5222.657374361197
 30
0.0
 10
8635.47755420893
 20
5223.010836327586
 30
0.0
 10
8632.205661401345
 20
5222.659621965259
 30
0.0
 10
8630.554061173334
 20
5222.482334457688
 30
0.0
  0
LINE
  5
28C
330
1F
100
AcDbEntity
  8
0
  6
Continuous
 62
     7
370
    25
100
AcDbLine
 10
8640.3690157724
 20
5221.0209910926
 30
0.0
 11
8640.3690157496
 21
5222.4823344577
 31
0.0
  0
SPLINE
  5
28D
330
1F
100
AcDbEntity
  8
0
  6
Continuous
 62
     7
370
    25
100
AcDbSpline
210
0.0
220
0.0
230
1.0
 70
     8
 71
     3
 72
     9
 73
     5
 74
     0
 42
0.00000001
 43
0.00000001
 40
0.0
 40
0.0
 40
0.0
 40
0.0
 40
0.4952156671610924
 40
1.0
 40
1.0
 40
1.0
 40
1.0
 10
8645.276493037634
 20
5222.48233445769
 30
0.0
 10
8644.466466616917
 20
5222.657374361192
 30
0.0
 10
8642.830762267413
 20
5223.010836327581
 30
0.0
 10
8641.19481586358
 20
5222.659621965263
 30
0.0
 10
8640.36901574956
 20
5222.482334457696
 30
0.0
  0
SPLINE
  5
28E
330
1F
100
AcDbEntity
  8
0
  6
Continuous
 62
     7
370
    25
100
AcDbSpline
210
0.0
220
0.0
230
1.0
 70
     8
 71
     3
 72
     9
 73
     5
 74
     0
 42
0.00000001
 43
0.00000001
 40
0.0
 40
0.0
 40
0.0
 40
0.0
 40
0.4952156671592657
 40
0.9999999999999999
 40
0.9999999999999999
 40
0.9999999999999999
 40
0.9999999999999999
 10
8630.554061173334
 20
5222.482334457688
 30
0.0
 10
8629.744034752592
 20
5222.65737436119
 30
0.0
 10
8628.108330403033
 20
5223.010836327583
 30
0.0
 10
8626.472383999304
 20
5222.65962196526
 30
0.0
 10
8625.646583885333
 20
5222.482334457691
 30
0.0
  0
LINE
  5
28F
330
1F
100
AcDbEntity
  8
0
  6
Continuous
 62
     7
370
    25
100
AcDbLine
 10
8629.5292644456
 20
5219.0516627737
 30
0.0
 11
8628.6115384615
 21
5219.0516627737
 31
0.0
  0
LINE
  5
290
330
1F
100
AcDbEntity
  8
0
  6
Continuous
 62
     7
370
    25
100
AcDbLine
 10
8642.3115384615
 20
5219.0516627737
 30
0.0
 11
8629.5292644456
 21
5219.0516627737
 31
0.0
  0
LINE
  5
291
330
1F
100
AcDbEntity
  8
0
  6
Continuous
 62
     7
370
    25
100
AcDbLine
 10
8645.2764930491
 20
5221.0209910926
 30
0.0
 11
8645.2764930376
 21
5222.4823344577
 31
0.0
  0
LINE
  5
292
330
1F
100
AcDbEntity
  8
0
  6
Continuous
 62
     7
370
    25
100
AcDbLine
 10
8625.6465838739
 20
5221.0209910926
 30
0.0
 11
8625.6465838853
 21
5222.4823344577
 31
0.0
  0
SPLINE
  5
293
330
1F
100
AcDbEntity
  8
0
  6
Continuous
 62
     7
370
    25
100
AcDbSpline
210
0.0
220
0.0
230
1.0
 70
    24
 71
     3
 72
    20
 73
    16
 74
     0
 42
0.00000001
 43
0.00000001
 40
0.0
 40
0.0
 40
0.0
 40
0.0
 40
0.0467921774031829
 40
0.1665205996004769
 40
0.2862490217977717
 40
0.3507009297195608
 40
0.416520599600475
 40
0.4823402694813897
 40
0.5467921774031782
 40
0.6665205996004727
 40
0.7862490217977676
 40
0.8507009297195564
 40
0.9165205996004703
 40
0.9823402694813853
 40
0.9999999999999999
 40
0.9999999999999999
 40
0.9999999999999999
 40
0.9999999999999999
 10
8631.77654420123
 20
5209.601662773666
 30
0.0
 10
8631.778861658668
 20
5209.601662773666
 30
0.0
 10
8631.787108857738
 20
5209.601662773667
 30
0.0
 10
8632.187744534272
 20
5209.601662773668
 30
0.0
 10
8632.965922661911
 20
5209.601662773669
 30
0.0
 10
8633.785096072967
 20
5209.601662773669
 30
0.0
 10
8634.497008070446
 20
5209.601662773669
 30
0.0
 10
8635.250032845905
 20
5209.601662773669
 30
0.0
 10
8636.21965362896
 20
5209.601662773669
 30
0.0
 10
8637.356567903642
 20
5209.601662773669
 30
0.0
 10
8638.26488413398
 20
5209.601662773668
 30
0.0
 10
8638.790563240445
 20
5209.601662773668
 30
0.0
 10
8639.053541097444
 20
5209.601662773667
 30
0.0
 10
8639.171757345666
 20
5209.601662773667
 30
0.0
 10
8639.150937150143
 20
5209.601662773666
 30
0.0
 10
8639.146532721737
 20
5209.601662773666
 30
0.0
  0
LINE
  5
294
330
1F
100
AcDbEntity
  8
0
  6
Continuous
 62
     7
370
    25
100
AcDbLine
 10
8660.961538462
 20
5240.9016627737
 30
0.0
 11
8660.1081867879
 21
5240.9016627737
 31
0.0
  0
LINE
  5
295
330
1F
100
AcDbEntity
  8
0
  6
Continuous
 62
     7
370
    25
100
AcDbLine
 10
8608.4148901352
 20
5240.9016627736
 30
0.0
 11
8607.7615384615
 21
5240.9016627736
 31
0.0
  0
LINE
  5
296
330
1F
100
AcDbEntity
  8
0
  6
Continuous
 62
     7
370
    25
100
AcDbLine
 10
8686.9615384615
 20
5220.8016627735
 30
0.0
 11
8664.9615384615
 21
5220.8016627735
 31
0.0
  0
LINE
  5
297
330
1F
100
AcDbEntity
  8
0
  6
Continuous
 62
     7
370
    25
100
AcDbLine
 10
8663.9615384615
 20
5221.8016627735
 30
0.0
 11
8687.9615384615
 21
5221.8016627735
 31
0.0
  0
LINE
  5
298
330
1F
100
AcDbEntity
  8
0
  6
Continuous
 62
     7
370
    25
100
AcDbLine
 10
8675.5223611718
 20
5220.6016627735
 30
0.0
 11
8670.5615384615
 21
5220.6016627735
 31
0.0
  0
LINE
  5
299
330
1F
100
AcDbEntity
  8
0
  6
Continuous
 62
     7
370
    25
100
AcDbLine
 10
8681.3615384615
 20
5220.6016627735
 30
0.0
 11
8676.5223611718
 21
5220.6016627735
 31
0.0
  0
SPLINE
  5
29A
330
1F
100
AcDbEntity
  8
0
  6
Continuous
 62
     7
370
    25
100
AcDbSpline
210
0.0
220
0.0
230
1.0
 70
    24
 71
     3
 72
    13
 73
     9
 74
     0
 42
0.00000001
 43
0.00000001
 40
0.0
 40
0.0
 40
0.0
 40
0.0
 40
0.0078315083444775
 40
0.2242134010656828
 40
0.440506527411377
 40
0.6560344530517136
 40
0.8704785517425164
 40
0.9999999999999999
 40
0.9999999999999999
 40
0.9999999999999999
 40
0.9999999999999999
 10
8676.522361171774
 20
5220.601662773463
 30
0.0
 10
8676.522361171774
 20
5220.601666025032
 30
0.0
 10
8676.522361171774
 20
5220.601759116342
 30
0.0
 10
8676.522361171774
 20
5220.610257962318
 30
0.0
 10
8676.522361171774
 20
5220.64447421032
 30
0.0
 10
8676.522361171774
 20
5220.696533735095
 30
0.0
 10
8676.522361171774
 20
5220.75210548522
 30
0.0
 10
8676.522361171774
 20
5220.78810647348
 30
0.0
 10
8676.522361171774
 20
5220.801662773463
 30
0.0
  0
SPLINE
  5
29B
330
1F
100
AcDbEntity
  8
0
  6
Continuous
 62
     7
370
    25
100
AcDbSpline
210
0.0
220
0.0
230
1.0
 70
    24
 71
     3
 72
    13
 73
     9
 74
     0
 42
0.00000001
 43
0.00000001
 40
0.0
 40
0.0
 40
0.0
 40
0.0
 40
0.0254342784919342
 40
0.2391405405228668
 40
0.4528843033372799
 40
0.6670512278740933
 40
0.8818628295038904
 40
1.0
 40
1.0
 40
1.0
 40
1.0
 10
8675.522361171774
 20
5220.801662773463
 30
0.0
 10
8675.522361171774
 20
5220.799006758303
 30
0.0
 10
8675.522361171774
 20
5220.774034125358
 30
0.0
 10
8675.522361171774
 20
5220.726746291646
 30
0.0
 10
8675.522361171774
 20
5220.668363224047
 30
0.0
 10
8675.522361171774
 20
5220.625133810336
 30
0.0
 10
8675.522361171774
 20
5220.604267893475
 30
0.0
 10
8675.522361171774
 20
5220.60234504147
 30
0.0
 10
8675.522361171774
 20
5220.601662773463
 30
0.0
  0
LINE
  5
29C
330
1F
100
AcDbEntity
  8
0
  6
Continuous
 62
     7
370
    25
100
AcDbLine
 10
8675.5223611718
 20
5220.6016627735
 30
0.0
 11
8676.0555241001
 21
5220.6016627735
 31
0.0
  0
LINE
  5
29D
330
1F
100
AcDbEntity
  8
0
  6
Continuous
 62
     7
370
    25
100
AcDbLine
 10
8676.0555241001
 20
5220.6016627735
 30
0.0
 11
8676.5223611718
 21
5220.6016627735
 31
0.0
  0
LINE
  5
29E
330
1F
100
AcDbEntity
  8
0
  6
Continuous
 62
     7
370
    25
100
AcDbLine
 10
8717.2115384615
 20
5218.4016627738
 30
0.0
 11
8736.0051860526
 21
5218.4016627738
 31
0.0
  0
LINE
  5
29F
330
1F
100
AcDbEntity
  8
0
  6
Continuous
 62
     7
370
    25
100
AcDbLine
 10
8717.2115384615
 20
5218.4016627738
 30
0.0
 11
8717.2115384615
 21
5222.9016627736
 31
0.0
  0
LINE
  5
2A0
330
1F
100
AcDbEntity
  8
0
  6
Continuous
 62
     7
370
    25
100
AcDbLine
 10
8688.9321266971
 20
5222.9016627736
 30
0.0
 11
8696.2115384615
 21
5218.4016627738
 31
0.0
  0
LINE
  5
2A1
330
1F
100
AcDbEntity
  8
0
  6
Continuous
 62
     7
370
    25
100
AcDbLine
 10
8696.2115384615
 20
5218.4016627738
 30
0.0
 11
8717.2115384615
 21
5218.4016627738
 31
0.0
  0
LINE
  5
2A2
330
1F
100
AcDbEntity
  8
0
  6
Continuous
 62
     7
370
    25
100
AcDbLine
 10
8733.6051860526
 20
5212.4016627738
 30
0.0
 11
8713.4051860526
 21
5212.4016627738
 31
0.0
  0
ARC
  5
2A3
330
1F
100
AcDbEntity
  8
0
  6
Continuous
 62
     7
370
    25
100
AcDbCircle
 10
8719.5099491156
 20
5210.7254942836
 30
0.0
 40
1.059911613901547
100
AcDbArc
 50
313.3155265029
 51
351.3488385307
  0
LINE
  5
2A4
330
1F
100
AcDbEntity
  8
0
  6
Continuous
 62
     7
370
    25
100
AcDbLine
 10
8719.5884163114
 20
5210.6926877858
 30
0.0
 11
8719.5884163114
 21
5209.9543164972
 31
0.0
  0
ARC
  5
2A5
330
1F
100
AcDbEntity
  8
0
  6
Continuous
 62
     7
370
    25
100
AcDbCircle
 10
8724.5000649411
 20
5211.0738266845
 30
0.0
 40
5.280395510980092
100
AcDbArc
 50
330.2588632573
 51
0.8825225292
  0
LINE
  5
2A6
330
1F
100
AcDbEntity
  8
0
  6
Continuous
 62
     7
370
    25
100
AcDbLine
 10
8728.43625469
 20
5208.4543164972
 30
0.0
 11
8729.0849033386
 21
5208.4543164972
 31
0.0
  0
LINE
  5
2A7
330
1F
100
AcDbEntity
  8
0
  6
Continuous
 62
     7
370
    25
100
AcDbLine
 10
8728.43625469
 20
5210.8644418009
 30
0.0
 11
8728.43625469
 21
5208.4543164972
 31
0.0
  0
LINE
  5
2A8
330
1F
100
AcDbEntity
  8
0
  6
Continuous
 62
     7
370
    25
100
AcDbLine
 10
8725.7520790021
 20
5209.9543164972
 30
0.0
 11
8719.5884163114
 21
5209.9543164972
 31
0.0
  0
LINE
  5
2A9
330
1F
100
AcDbEntity
  8
0
  6
Continuous
 62
     7
370
    25
100
AcDbLine
 10
8728.43625469
 20
5208.4543164972
 30
0.0
 11
8716.9042406235
 21
5208.4543164972
 31
0.0
  0
LINE
  5
2AA
330
1F
100
AcDbEntity
  8
0
  6
Continuous
 62
     7
370
    25
100
AcDbLine
 10
8716.9042406235
 20
5211.2368679087
 30
0.0
 11
8716.9042406235
 21
5208.4543164972
 31
0.0
  0
LINE
  5
2AB
330
1F
100
AcDbEntity
  8
0
  6
Continuous
 62
     7
370
    25
100
AcDbLine
 10
8725.7520790021
 20
5210.4970808009
 30
0.0
 11
8725.7520790021
 21
5209.9543164972
 31
0.0
  0
LINE
  5
2AC
330
1F
100
AcDbEntity
  8
0
  6
Continuous
 62
     7
370
    25
100
AcDbLine
 10
8691.6655400629
 20
5245.8016627738
 30
0.0
 11
8690.9918285887
 21
5245.8016627738
 31
0.0
  0
LINE
  5
2AD
330
1F
100
AcDbEntity
  8
0
  6
Continuous
 62
     7
370
    25
100
AcDbLine
 10
8690.9918285887
 20
5239.9016627736
 30
0.0
 11
8690.9918285887
 21
5245.8016627738
 31
0.0
  0
LINE
  5
2AE
330
1F
100
AcDbEntity
  8
0
  6
Continuous
 62
     8
370
    25
100
AcDbLine
 10
8595.1383151568
 20
5238.9016627742
 30
0.0
 11
8594.961538462
 21
5238.9016627742
 31
0.0
  0
LINE
  5
2AF
330
1F
100
AcDbEntity
  8
0
  6
Continuous
 62
     8
370
    25
100
AcDbLine
 10
8595.1383151568
 20
5238.4920158233
 30
0.0
 11
8594.9995190795
 21
5238.4675423301
 31
0.0
  0
LINE
  5
2B0
330
1F
100
AcDbEntity
  8
0
  6
Continuous
 62
     8
370
    25
100
AcDbLine
 10
8743.0510872095
 20
5246.8155519981
 30
0.0
 11
8743.0510872096
 21
5240.1877735497
 31
0.0
  0
LINE
  5
2B1
330
1F
100
AcDbEntity
  8
0
  6
Continuous
 62
     8
370
    25
100
AcDbLine
 10
8608.8719897137
 20
5240.1877735497
 30
0.0
 11
8608.8719897137
 21
5246.815551998
 31
0.0
  0
LINE
  5
2B2
330
1F
100
AcDbEntity
  8
0
  6
Continuous
 62
     8
370
    25
100
AcDbLine
 10
8659.6510872094
 20
5246.815551998
 30
0.0
 11
8659.6510872094
 21
5240.1877735497
 31
0.0
  0
LINE
  5
2B3
330
1F
100
AcDbEntity
  8
0
  6
Continuous
 62
     8
370
    25
100
AcDbLine
 10
8692.2719897138
 20
5240.1877735497
 30
0.0
 11
8692.2719897138
 21
5246.815551998
 31
0.0
  0
SPLINE
  5
2B4
330
1F
100
AcDbEntity
  8
0
  6
Continuous
 62
     8
370
    25
100
AcDbSpline
210
0.0
220
0.0
230
1.0
 70
    24
 71
     3
 72
    24
 73
    20
 74
     0
 42
0.00000001
 43
0.00000001
 40
0.0
 40
0.0
 40
0.0
 40
0.0
 40
0.0208184443316411
 40
0.0833184443316414
 40
0.1458184443316417
 40
0.2083184443316415
 40
0.2708184443316412
 40
0.3333184443316417
 40
0.3958184443316417
 40
0.4583184443316418
 40
0.5208184443316416
 40
0.5833184443316416
 40
0.6458184443316417
 40
0.7083184443316418
 40
0.7708184443316416
 40
0.8333184443316417
 40
0.8958184443316421
 40
0.9583184443316419
 40
0.9999999999999999
 40
0.9999999999999999
 40
0.9999999999999999
 40
0.9999999999999999
 10
8642.282237111094
 20
5217.346100342414
 30
0.0
 10
8642.290326467126
 20
5217.346100342414
 30
0.0
 10
8642.322701247362
 20
5217.346100342415
 30
0.0
 10
8642.109324687268
 20
5217.346100342415
 30
0.0
 10
8641.647789461424
 20
5217.346100342416
 30
0.0
 10
8640.930217864989
 20
5217.346100342417
 30
0.0
 10
8640.0073920675
 20
5217.346100342417
 30
0.0
 10
8638.908557553023
 20
5217.346100342418
 30
0.0
 10
8637.677608395428
 20
5217.346100342419
 30
0.0
 10
8636.361401555474
 20
5217.346100342419
 30
0.0
 10
8635.010642544346
 20
5217.346100342419
 30
0.0
 10
8633.677190316517
 20
5217.346100342419
 30
0.0
 10
8632.41236410007
 20
5217.346100342418
 30
0.0
 10
8631.264518786882
 20
5217.346100342418
 30
0.0
 10
8630.278696703042
 20
5217.346100342417
 30
0.0
 10
8629.489309010989
 20
5217.346100342416
 30
0.0
 10
8628.939653872167
 20
5217.346100342415
 30
0.0
 10
8628.639915133243
 20
5217.346100342415
 30
0.0
 10
8628.640575577527
 20
5217.346100342414
 30
0.0
 10
8628.640839811873
 20
5217.346100342414
 30
0.0
  0
LWPOLYLINE
  5
2B5
330
1F
100
AcDbEntity
  8
0
  6
Continuous
 62
     8
370
    25
100
AcDbPolyline
 90
       34
 70
   128
 43
0.0
 10
8641.2056633279
 20
5215.8497740383
 10
8641.2080418375
 20
5215.8497911129
 10
8640.7645791112
 20
5215.8498205448
 10
8640.1142292888
 20
5215.8498472101
 10
8639.4455316582
 20
5215.849871111
 10
8638.8864253112
 20
5215.8498922494
 10
8638.5134492123
 20
5215.8499106267
 10
8638.4101237586
 20
5215.8499187805
 10
8638.3805054402
 20
5215.8499225987
 10
8638.3712893513
 20
5215.8499244432
 10
8638.3677641782
 20
5215.8499254573
 10
8638.3665857091
 20
5215.8499258992
 10
8638.366139359
 20
5215.8499260928
 10
8638.365956941
 20
5215.8499261778
 10
8638.3658793831
 20
5215.8499262152
 10
8638.3658457815
 20
5215.8499262316
 10
8638.3658310982
 20
5215.8499262389
 10
8638.3658246572
 20
5215.8499262421
 10
8638.3658196049
 20
5215.8499262446
 10
8637.2272046194
 20
5215.8501158982
 10
8636.2170304284
 20
5215.8495247205
 10
8633.9516772385
 20
5215.8499149908
 10
8631.9131033166
 20
5215.8509115086
 10
8631.4785306878
 20
5215.850457768
 10
8631.0831637453
 20
5215.8497189952
 10
8630.7309254494
 20
5215.848689329
 10
8630.4252895042
 20
5215.8473606833
 10
8630.2395792919
 20
5215.8474472438
 10
8629.9524303595
 20
5215.8488387223
 10
8629.7511331251
 20
5215.8504730341
 10
8629.7095653537
 20
5215.8509244129
 10
8629.6976023978
 20
5215.8510602631
 10
8629.6900619181
 20
5215.8511365625
 10
8629.6693910376
 20
5215.8510044387
  0
LINE
  5
2B6
330
1F
100
AcDbEntity
  8
0
  6
Continuous
 62
     8
370
    25
100
AcDbLine
 10
8640.7615384615
 20
5215.1016627737
 30
0.0
 11
8630.1615384615
 21
5215.1016627737
 31
0.0
  0
LINE
  5
2B7
330
1F
100
AcDbEntity
  8
0
  6
Continuous
 62
     8
370
    25
100
AcDbLine
 10
8630.1615384615
 20
5211.2016627737
 30
0.0
 11
8640.7615384615
 21
5211.2016627737
 31
0.0
  0
ENDSEC
  0
SECTION
  2
OBJECTS
  0
DICTIONARY
  5
C
330
0
100
AcDbDictionary
281
     1
  3
ACAD_GROUP
350
D
  3
ACAD_LAYOUT
350
1A
  3
ACAD_MLINESTYLE
350
17
  3
ACAD_PLOTSETTINGS
350
19
  3
ACAD_PLOTSTYLENAME
350
E
  3
ACAD_SCALELIST
350
47
  3
DWGPROPS
350
2B8
  0
DICTIONARY
  5
D
102
{ACAD_REACTORS
330
C
102
}
330
C
100
AcDbDictionary
281
     1
  0
DICTIONARY
  5
1A
102
{ACAD_REACTORS
330
C
102
}
330
C
100
AcDbDictionary
281
     1
  3
Layout1
350
1E
  3
Layout2
350
26
  3
Model
350
22
  0
DICTIONARY
  5
17
102
{ACAD_REACTORS
330
C
102
}
330
C
100
AcDbDictionary
281
     1
  3
Standard
350
18
  0
DICTIONARY
  5
19
102
{ACAD_REACTORS
330
C
102
}
330
C
100
AcDbDictionary
281
     1
  0
ACDBDICTIONARYWDFLT
  5
E
102
{ACAD_REACTORS
330
C
102
}
330
C
100
AcDbDictionary
281
     1
  3
Normal
350
F
100
AcDbDictionaryWithDefault
340
F
  0
DICTIONARY
  5
47
102
{ACAD_REACTORS
330
C
102
}
330
C
100
AcDbDictionary
281
     1
  3
A0
350
48
  3
A1
350
49
  3
A2
350
4A
  3
A3
350
4B
  3
A4
350
4C
  3
A5
350
4D
  3
A6
350
4E
  3
A7
350
4F
  3
A8
350
50
  3
A9
350
51
  3
B0
350
52
  3
B1
350
53
  3
B2
350
54
  3
B3
350
55
  3
B4
350
56
  3
B5
350
57
  3
B6
350
58
  3
B7
350
59
  3
B8
350
5A
  3
B9
350
5B
  3
C0
350
5C
  3
C1
350
5D
  3
C2
350
5E
  3
C3
350
5F
  3
C4
350
60
  3
C5
350
61
  3
C6
350
62
  3
C7
350
63
  3
C8
350
64
  3
C9
350
65
  3
D0
350
66
  3
D1
350
67
  3
D2
350
68
  0
XRECORD
  5
2B8
102
{ACAD_REACTORS
330
C
102
}
330
C
100
AcDbXrecord
280
     1
  1
DWGPROPS COOKIE
  2

  3

  4

  6

  7

  8
radek.stransky
  9

300
=
301
=
302
=
303
=
304
=
305
=
306
=
307
=
308
=
309
=
 40
0.0
 41
2459100.386531308
 42
2459100.386531852
  1

 90
        0
  0
LAYOUT
  5
1E
102
{ACAD_REACTORS
330
1A
102
}
330
1A
100
AcDbPlotSettings
  1

  2
none_device
  4

  6

 40
0.0
 41
0.0
 42
0.0
 43
0.0
 44
0.0
 45
0.0
 46
0.0
 47
0.0
 48
0.0
 49
0.0
140
0.0
141
0.0
142
1.0
143
1.0
 70
   688
 72
     1
 73
     0
 74
     5
  7

 75
    16
147
1.0
148
0.0
149
0.0
100
AcDbLayout
  1
Layout1
 70
     1
 71
     1
 10
0.0
 20
0.0
 11
420.0
 21
297.0
 12
0.0
 22
0.0
 32
0.0
 14
1.0000000000E+20
 24
1.0000000000E+20
 34
1.0000000000E+20
 15
-1.0000000000E+20
 25
-1.0000000000E+20
 35
-1.0000000000E+20
146
0.0
 13
0.0
 23
0.0
 33
0.0
 16
1.0
 26
0.0
 36
0.0
 17
0.0
 27
1.0
 37
0.0
 76
     0
330
1B
  0
LAYOUT
  5
26
102
{ACAD_REACTORS
330
1A
102
}
330
1A
100
AcDbPlotSettings
  1

  2
none_device
  4

  6

 40
0.0
 41
0.0
 42
0.0
 43
0.0
 44
0.0
 45
0.0
 46
0.0
 47
0.0
 48
0.0
 49
0.0
140
0.0
141
0.0
142
1.0
143
1.0
 70
   688
 72
     1
 73
     0
 74
     5
  7

 75
    16
147
1.0
148
0.0
149
0.0
100
AcDbLayout
  1
Layout2
 70
     1
 71
     2
 10
0.0
 20
0.0
 11
0.0
 21
0.0
 12
0.0
 22
0.0
 32
0.0
 14
0.0
 24
0.0
 34
0.0
 15
0.0
 25
0.0
 35
0.0
146
0.0
 13
0.0
 23
0.0
 33
0.0
 16
1.0
 26
0.0
 36
0.0
 17
0.0
 27
1.0
 37
0.0
 76
     0
330
23
  0
LAYOUT
  5
22
102
{ACAD_REACTORS
330
1A
102
}
330
1A
100
AcDbPlotSettings
  1

  2
none_device
  4
Letter_(8.50_x_11.00_Inches)
  6

 40
6.35
 41
6.35
 42
6.35000508
 43
6.35000508
 44
215.9
 45
279.4
 46
0.0
 47
0.0
 48
0.0
 49
0.0
140
0.0
141
0.0
142
1.0
143
1.0
 70
  1712
 72
     1
 73
     0
 74
     0
  7

 75
     0
147
1.0
148
0.0
149
0.0
100
AcDbLayout
  1
Model
 70
     1
 71
     0
 10
0.0
 20
0.0
 11
20000.0
 21
10000.0
 12
0.0
 22
0.0
 32
0.0
 14
0.0
 24
0.0
 34
0.0
 15
20000.0
 25
10000.0
 35
0.0
146
0.0
 13
0.0
 23
0.0
 33
0.0
 16
1.0
 26
0.0
 36
0.0
 17
0.0
 27
1.0
 37
0.0
 76
     0
330
1F
331
29
  0
MLINESTYLE
  5
18
102
{ACAD_REACTORS
330
17
102
}
330
17
100
AcDbMlineStyle
  2
Standard
 70
     0
  3

 62
   256
 51
90.0
 52
90.0
 71
     2
 49
0.5
 62
   256
  6
BYLAYER
 49
-0.5
 62
   256
  6
BYLAYER
  0
ACDBPLACEHOLDER
  5
F
102
{ACAD_REACTORS
330
E
102
}
330
E
  0
SCALE
  5
48
102
{ACAD_REACTORS
330
47
102
}
330
47
100
AcDbScale
 70
     0
300
1:1
140
1.0
141
1.0
290
     1
  0
SCALE
  5
49
102
{ACAD_REACTORS
330
47
102
}
330
47
100
AcDbScale
 70
     0
300
1:2
140
1.0
141
2.0
290
     0
  0
SCALE
  5
4A
102
{ACAD_REACTORS
330
47
102
}
330
47
100
AcDbScale
 70
     0
300
1:4
140
1.0
141
4.0
290
     0
  0
SCALE
  5
4B
102
{ACAD_REACTORS
330
47
102
}
330
47
100
AcDbScale
 70
     0
300
1:5
140
1.0
141
5.0
290
     0
  0
SCALE
  5
4C
102
{ACAD_REACTORS
330
47
102
}
330
47
100
AcDbScale
 70
     0
300
1:8
140
1.0
141
8.0
290
     0
  0
SCALE
  5
4D
102
{ACAD_REACTORS
330
47
102
}
330
47
100
AcDbScale
 70
     0
300
1:10
140
1.0
141
10.0
290
     0
  0
SCALE
  5
4E
102
{ACAD_REACTORS
330
47
102
}
330
47
100
AcDbScale
 70
     0
300
1:16
140
1.0
141
16.0
290
     0
  0
SCALE
  5
4F
102
{ACAD_REACTORS
330
47
102
}
330
47
100
AcDbScale
 70
     0
300
1:20
140
1.0
141
20.0
290
     0
  0
SCALE
  5
50
102
{ACAD_REACTORS
330
47
102
}
330
47
100
AcDbScale
 70
     0
300
1:30
140
1.0
141
30.0
290
     0
  0
SCALE
  5
51
102
{ACAD_REACTORS
330
47
102
}
330
47
100
AcDbScale
 70
     0
300
1:40
140
1.0
141
40.0
290
     0
  0
SCALE
  5
52
102
{ACAD_REACTORS
330
47
102
}
330
47
100
AcDbScale
 70
     0
300
1:50
140
1.0
141
50.0
290
     0
  0
SCALE
  5
53
102
{ACAD_REACTORS
330
47
102
}
330
47
100
AcDbScale
 70
     0
300
1:100
140
1.0
141
100.0
290
     0
  0
SCALE
  5
54
102
{ACAD_REACTORS
330
47
102
}
330
47
100
AcDbScale
 70
     0
300
2:1
140
2.0
141
1.0
290
     0
  0
SCALE
  5
55
102
{ACAD_REACTORS
330
47
102
}
330
47
100
AcDbScale
 70
     0
300
4:1
140
4.0
141
1.0
290
     0
  0
SCALE
  5
56
102
{ACAD_REACTORS
330
47
102
}
330
47
100
AcDbScale
 70
     0
300
8:1
140
8.0
141
1.0
290
     0
  0
SCALE
  5
57
102
{ACAD_REACTORS
330
47
102
}
330
47
100
AcDbScale
 70
     0
300
10:1
140
10.0
141
1.0
290
     0
  0
SCALE
  5
58
102
{ACAD_REACTORS
330
47
102
}
330
47
100
AcDbScale
 70
     0
300
100:1
140
100.0
141
1.0
290
     0
  0
SCALE
  5
59
102
{ACAD_REACTORS
330
47
102
}
330
47
100
AcDbScale
 70
     0
300
1/128" = 1'-0"
140
0.0078125
141
12.0
290
     0
  0
SCALE
  5
5A
102
{ACAD_REACTORS
330
47
102
}
330
47
100
AcDbScale
 70
     0
300
1/64" = 1'-0"
140
0.015625
141
12.0
290
     0
  0
SCALE
  5
5B
102
{ACAD_REACTORS
330
47
102
}
330
47
100
AcDbScale
 70
     0
300
1/32" = 1'-0"
140
0.03125
141
12.0
290
     0
  0
SCALE
  5
5C
102
{ACAD_REACTORS
330
47
102
}
330
47
100
AcDbScale
 70
     0
300
1/16" = 1'-0"
140
0.0625
141
12.0
290
     0
  0
SCALE
  5
5D
102
{ACAD_REACTORS
330
47
102
}
330
47
100
AcDbScale
 70
     0
300
3/32" = 1'-0"
140
0.09375
141
12.0
290
     0
  0
SCALE
  5
5E
102
{ACAD_REACTORS
330
47
102
}
330
47
100
AcDbScale
 70
     0
300
1/8" = 1'-0"
140
0.125
141
12.0
290
     0
  0
SCALE
  5
5F
102
{ACAD_REACTORS
330
47
102
}
330
47
100
AcDbScale
 70
     0
300
3/16" = 1'-0"
140
0.1875
141
12.0
290
     0
  0
SCALE
  5
60
102
{ACAD_REACTORS
330
47
102
}
330
47
100
AcDbScale
 70
     0
300
1/4" = 1'-0"
140
0.25
141
12.0
290
     0
  0
SCALE
  5
61
102
{ACAD_REACTORS
330
47
102
}
330
47
100
AcDbScale
 70
     0
300
3/8" = 1'-0"
140
0.375
141
12.0
290
     0
  0
SCALE
  5
62
102
{ACAD_REACTORS
330
47
102
}
330
47
100
AcDbScale
 70
     0
300
1/2" = 1'-0"
140
0.5
141
12.0
290
     0
  0
SCALE
  5
63
102
{ACAD_REACTORS
330
47
102
}
330
47
100
AcDbScale
 70
     0
300
3/4" = 1'-0"
140
0.75
141
12.0
290
     0
  0
SCALE
  5
64
102
{ACAD_REACTORS
330
47
102
}
330
47
100
AcDbScale
 70
     0
300
1" = 1'-0"
140
1.0
141
12.0
290
     0
  0
SCALE
  5
65
102
{ACAD_REACTORS
330
47
102
}
330
47
100
AcDbScale
 70
     0
300
1-1/2" = 1'-0"
140
1.5
141
12.0
290
     0
  0
SCALE
  5
66
102
{ACAD_REACTORS
330
47
102
}
330
47
100
AcDbScale
 70
     0
300
3" = 1'-0"
140
3.0
141
12.0
290
     0
  0
SCALE
  5
67
102
{ACAD_REACTORS
330
47
102
}
330
47
100
AcDbScale
 70
     0
300
6" = 1'-0"
140
6.0
141
12.0
290
     0
  0
SCALE
  5
68
102
{ACAD_REACTORS
330
47
102
}
330
47
100
AcDbScale
 70
     0
300
1'-0" = 1'-0"
140
12.0
141
12.0
290
     0
  0
ENDSEC
  0
EOF
